Union Against The Power - Nothin About You Chords & Tabs

 

Nothin About You Chords & Tabs

Union Against The Power Chords & Tabs

Version: 1 Type: Tab 0 ratings
1 star 2 stars 3 stars 4 stars 5 stars
comments

Nothin About You Tab

Union Against the Power 							Bryson “Bison” Sheaffer
Song: “Nothing About you”						Chris  Swingle	


OK, this is our new song , pretty easy , our rhythm player(Chris S. ) only plays chorus and the bass only plays the verse 2, 3 and choruses. 

This song can be played on acoustic or electric. If played on an electric play with rhythm pickup , that is humbucking.  Nice clean sound with %50 reverb.

I play lead, and use a finger pickin’ style. Makes it nice and easy. 

- Thanks – all the guys from U A T P

Verse 1:

E ---------------2------------------------2--------------------------2------------------------2-------------------------/
B---------3--------3-----3---------3--------3-----3----------3--------3------3-----------3-------3----3-----------------/
G ----2------2--------2---------0----0---------0----------2----2---------2------------2----2-------2--------------------/
D -0--------------------------0-------------------------0--------------------------0------------------------------------/
A ----------------------------------------------------------------------------------------------------------------------/
E  ---------------------------------------------------------------------------------------------------------------------/


E -------------3------------------------5-----------------------2-------------------------------------------------/
B--------3-------3-----3----------3--------3----3----------3------3-----2-----------------------------------------/
G ----2----2--------2---------2------2--------2---------2----2-------2--------------------------------------------/
D -0------------------------0------------------------0------------------------------------------------------------/
A ----------------------------------------------------------------------------------------------------------------/
E  ---------------------------------------------------------------------------------------------------------------/

Chorus:
[ Tab from: http://www.guitartabs.cc/tabs/u/union_against_the_power/nothin_about_you_tab.html ]
E ---2-2-2-2-2-2---2-2-2-2-2-2---2-2-2-2-2-2---2-2-2-2-2-2---3-3-3-3-3-3---5-5-5-5-5-5---2----------------
B ---3-3-3-3-3-3---3-3-3-3-3-3---3-3-3-3-3-3---3-3-3-3-3-3---3-3-3-3-3-3---3-3-3-3-3-3---3----------------
G ---2-2-2-2-2-2---0-0-0-0-0-0---2-2-2-2-2-2---2-2-2-2-2-2---2-2-2-2-2-2---2-2-2-2-2-2---2----------------
D ---0-0-0-0-0-0---0-0-0-0-0-0---0-0-0-0-0-0---0-0-0-0-0-0---0-0-0-0-0-0---0-0-0-0-0-0---0----------------
A --------------------------------------------------------------------------------------------------------
E  -------------------------------------------------------------------------------------------------------

Verse 2:

E ---------------3--2----------------3—2-----------/
B---------3-----3--3----------3-----3--3--3--------/
G -----2----2--------------2-----2---------2-------/   X2
D --0-------------------0--------------------------/
A -------------------------------------------------/
E  ------------------------------------------------/

Chorus::
E ---2-2-2-2-2-2---2-2-2-2-2-2---2-2-2-2-2-2---2-2-2-2-2-2---3-3-3-3-3-3---5-5-5-5-5-5---2----------------
B ---3-3-3-3-3-3---3-3-3-3-3-3---3-3-3-3-3-3---3-3-3-3-3-3---3-3-3-3-3-3---3-3-3-3-3-3---3----------------
G ---2-2-2-2-2-2---0-0-0-0-0-0---2-2-2-2-2-2---2-2-2-2-2-2---2-2-2-2-2-2---2-2-2-2-2-2---2----------------
D ---0-0-0-0-0-0---0-0-0-0-0-0---0-0-0-0-0-0---0-0-0-0-0-0---0-0-0-0-0-0---0-0-0-0-0-0---0----------------
A --------------------------------------------------------------------------------------------------------
E  -------------------------------------------------------------------------------------------------------
Verse 3:

E -------2--------2--------2--------2--------2------2-------3-----  3-------5--------5-------5-----/
B--------3--------3--------3--------3--------3------3-------3------3--------3--------3-------3-----/
G -----------2---------2--------0---------0------2-------2------2-------2------2---------2---------/  X2
D -------------------------------------------------------------------------------------------------/
A -------------------------------------------------------------------------------------------------/
E  ------------------------------------------------------------------------------------------------/

Outro:

E ------2-------2-----------2---/
B-------3-------3-----------3---/
G ----------2-------2-----------/
D ------------------------------/
A ------------------------------/
E  -----------------------------/




Thanks , Hope you enjoy it. 

Check out our webpage.


Comments