Union Against The Power - Down For The Count Chords & Tabs

 

Down For The Count Chords & Tabs

Union Against The Power Chords & Tabs

Version: 1 Type: Tab 1 rating
1 star 2 stars 3 stars 4 stars 5 stars
comments

Down For The Count Tab

   
Hey Guys New song again, Check it out.
THis is played on a Les Paul Treble pick-up. 

Clean, %50 reverb

E 7---7---7---7---/-3---3---3---3--/-10---10---10---10--/
B --5---5----5---5/---1---1---1---1/----8----8----8----8/
G ----------------/----------------/--------------------/
D ----------------/----------------/--------------------/
A ----------------/----------------/--------------------/
E ----------------/----------------/--------------------/

E 5---5---5---5---/------/
B --3---3---3---3-/----5-/
G ----------------/------/
D ----------------/------/
A ----------------/------/
E ----------------/------/

Chorus
Distortion w/t shape 

E -5--5--5--5--5--5--5--5/-1--1--1--1--1--1--1--1/ 
B -5--5--5--5--5--5--5--5/-1--1--1--1--1--1--1--1/
G -5--5--5--5--5--5--5--5/-1--1--1--1--1--1--1--1/
D -7--7--7--7--7--7--7--7/-3--3--3--3--3--3--3--3/
A -7--7--7--7--7--7--7--7/-3--3--3--3--3--3--3--3/
E -5--5--5--5--5--5--5--5/-1--1--1--1--1--1--1--1/

E -8--8--8--8--8--8--8--8-/ 3--3--3--3--3--3--3--3/ -5--5--5--5--5--5--5--5/
B -8--8--8--8--8--8--8--8-/ 3--3--3--3--3--3--3--3/ -5--5--5--5--5--5--5--5/
G -8--8--8--8--8--8--8--8-/ 3--3--3--3--3--3--3--3/ -5--5--5--5--5--5--5--5/
D -10-10-10-10-10-10-10-10/ 5--5--5--5--5--5--5--5/ -7--7--7--7--7--7--7--7/
A -10-10-10-10-10-10-10-10/ 5--5--5--5--5--5--5--5/ -7--7--7--7--7--7--7--7/
E -8--8--8--8--8--8--8--8-/ 3--3--3--3--3--3--3--3/ -5--5--5--5--5--5--5--5/

Verse: 1
 Metal ZOne
E 7---7---7---7---/-3---3---3---3--/-10---10---10---10--/
B --5---5----5---5/---1---1---1---1/----8----8----8----8/
G ----------------/----------------/--------------------/
D ----------------/----------------/--------------------/
A ----------------/----------------/--------------------/
E ----------------/----------------/--------------------/

E 5---5---5---5---/
B --3---3---3---3-/
G ----------------/
D ----------------/
A ----------------/
E ----------------/

Chorus
Distortion w/t shape 

E -5--5--5--5--5--5--5--5/-1--1--1--1--1--1--1--1/ 
B -5--5--5--5--5--5--5--5/-1--1--1--1--1--1--1--1/
G -5--5--5--5--5--5--5--5/-1--1--1--1--1--1--1--1/
D -7--7--7--7--7--7--7--7/-3--3--3--3--3--3--3--3/
A -7--7--7--7--7--7--7--7/-3--3--3--3--3--3--3--3/
E -5--5--5--5--5--5--5--5/-1--1--1--1--1--1--1--1/
[ Tab from: http://www.guitartabs.cc/tabs/u/union_against_the_power/down_for_the_count_tab.html ]
E -8--8--8--8--8--8--8--8-/ 3--3--3--3--3--3--3--3/ -5--5--5--5--5--5--5--5/
B -8--8--8--8--8--8--8--8-/ 3--3--3--3--3--3--3--3/ -5--5--5--5--5--5--5--5/
G -8--8--8--8--8--8--8--8-/ 3--3--3--3--3--3--3--3/ -5--5--5--5--5--5--5--5/
D -10-10-10-10-10-10-10-10/ 5--5--5--5--5--5--5--5/ -7--7--7--7--7--7--7--7/
A -10-10-10-10-10-10-10-10/ 5--5--5--5--5--5--5--5/ -7--7--7--7--7--7--7--7/
E -8--8--8--8--8--8--8--8-/ 3--3--3--3--3--3--3--3/ -5--5--5--5--5--5--5--5/



Bridge: 
Distortion w/t shape

E -1-/-3-/-5-/-7-/-8-/-1-/-3-/
B -1-/-3-/-5-/-7-/-8-/-1-/-3-/
G -1-/-3-/-5-/-7-/-8-/-1-/-3-/
D -3-/-5-/-7-/-9-/-10/-3-/-5-/
A -3-/-5-/-7-/-9-/-10/-3-/-5-/
E -1-/-3-/-5-/-7-/-8-/-1-/-3-/

Chorus
Distortion w/t shape 

E -5--5--5--5--5--5--5--5/-1--1--1--1--1--1--1--1/ 
B -5--5--5--5--5--5--5--5/-1--1--1--1--1--1--1--1/
G -5--5--5--5--5--5--5--5/-1--1--1--1--1--1--1--1/
D -7--7--7--7--7--7--7--7/-3--3--3--3--3--3--3--3/
A -7--7--7--7--7--7--7--7/-3--3--3--3--3--3--3--3/
E -5--5--5--5--5--5--5--5/-1--1--1--1--1--1--1--1/

E -8--8--8--8--8--8--8--8-/ 3--3--3--3--3--3--3--3/ -5--5--5--5--5--5--5--5/
B -8--8--8--8--8--8--8--8-/ 3--3--3--3--3--3--3--3/ -5--5--5--5--5--5--5--5/
G -8--8--8--8--8--8--8--8-/ 3--3--3--3--3--3--3--3/ -5--5--5--5--5--5--5--5/
D -10-10-10-10-10-10-10-10/ 5--5--5--5--5--5--5--5/ -7--7--7--7--7--7--7--7/
A -10-10-10-10-10-10-10-10/ 5--5--5--5--5--5--5--5/ -7--7--7--7--7--7--7--7/
E -8--8--8--8--8--8--8--8-/ 3--3--3--3--3--3--3--3/ -5--5--5--5--5--5--5--5/



Verse: 2
 Metal ZOne
E 7---7---7---7---/-3---3---3---3--/-10---10---10---10--/
B --5---5----5---5/---1---1---1---1/----8----8----8----8/
G ----------------/----------------/--------------------/
D ----------------/----------------/--------------------/
A ----------------/----------------/--------------------/
E ----------------/----------------/--------------------/

E 5---5---5---5---/
B --3---3---3---3-/
G ----------------/
D ----------------/
A ----------------/
E ----------------/


Outro:

E 7---7---7---7---/-3---3---3---3--/-10---10---10---10--/
B --5---5----5---5/---1---1---1---1/----8----8----8----8/
G ----------------/----------------/--------------------/
D ----------------/----------------/--------------------/
A ----------------/----------------/--------------------/
E ----------------/----------------/--------------------/

E 5---5---5---5---/------/
B --3---3---3---3-/----5-/
G ----------------/------/
D ----------------/------/  
A ----------------/------/
E ----------------/------/

Comments