Union 13 - Fuck Society Chords & Tabs

 

Fuck Society Chords & Tabs

Union 13 Chords & Tabs

Version: 1 Type: Tab 0 ratings
1 star 2 stars 3 stars 4 stars 5 stars
comments

Fuck Society Tab

song:fuck society
artist:union 13
tabbed by: ivan ozaeta
email:tomdelongefreak@hotmail.com
bass intro
e-----------------------
g-----------------------
d-7777-8-7-5-7----------
e--------------8-10-6---

guitar
e-------------------------
b------------0-4----------
g-4-44444444-2-2----------
d-2-22222222--------------
a-------------------------
e-------------------------

   p.m.-----

e----------------------
b----------------------
g----------------------
d-9999-10-9-7-9--------
a-7777-8--7-5-7-10-12-8
e---------------8--10-6
[ Tab from: http://www.guitartabs.cc/tabs/u/union_13/fuck_society_tab.html ]
then
e---------------------------------------------------------------------
b---------------------------------------------------------------------
g---------------------------------------------------------------------
d-10-10-10-10-10-10-10-10-77777777-10-10-10-10-9999-55555555-7777-----
a-8--8--8--8--8--8--8--8--55555555-8--8--8--8--7777-33333333-5555-----
e---------------------------------------------------------------------


interlude

e------------------------------------------------------
b------------------------------------------------------
g------------------------------------------------------
d-10--10-10-10-10-10-10-10-10--6--66666666--7--77777777
a-8---8--8--8--8--8--8--8--8---4--44444444--5--55555555
e------------------------------------------------------
     p.m.---------------------    ---------    --------
Comments