Unified Theory - Fin Chords & Tabs

 

Fin Chords & Tabs

Unified Theory Chords & Tabs

Version: 1 Type: Tab 0 ratings
1 star 2 stars 3 stars 4 stars 5 stars
comments

Fin Tab

   
Fin-Unified Theory
Tabbed by: Jim and Bud
bud_elliott67@yahoo.com for corrections..

Rate This - It took alot of work

This tab was writen intirely by ear, there maybe a few mistakes
but you can figgure it out. I noticed unified theory has very few
tabs... get to work ppl :D

p    Pull off
h    Hammer on
b    Bend
~~~  Vibreto
/    Slide

Intro/Outro:
|-12-----------------------------------15--|
|-----14-----------14-------14-------------|
|----------13-----------13-----------------|
|------------------------------------------|2x
|------------------------------------------|
|------------------------------------------|


Bridge 1:
|-12---------12-------12--12----------10-----10----------15--10--15---|
|---------14-------14-------14----------13-----13-----13--------------|
|------13-------13------------13----12----12-----12-12--------------12|
|---------------------------------------------------------------------|2x
|---------------------------------------------------------------------|
|---------------------------------------------------------------------|
                                                                   ^
                                  silde up 15 on second loop-------|

Verse:
|----------------------------------|----------------------|
|----------------------------------|----------------------|
|----------------------------------|----------------------|
|----------------------------------|(2x)------------------|
|-0---3/9---3/9-0---0-5-9--5-3-0---|-----9b9b9b9b9b~------|
|----------------------------------|----------------------|

Bridge 2:
|-----------------------------------------------------------------------|
|---------------------------------------------------------------14b-----|
|--------------14--16p14-----------------14--16p14-----------16---------|
|-----12/14---------------14-----12/14----------------------------------|
|-----------------------------------------------------------------------|
|-----------------------------------------------------------------------|

Chorus:
|------------------------------------------|
|------------------------------------------|
|-----------12--11-------------------------|
|-12/14\12----------14~--------------------|
|------------------------------------------|
|------------------------------------------|
[ Tab from: http://www.guitartabs.cc/tabs/u/unified_theory/fin_tab.html ]
Bridge 1:
|-12---------12-------12--12----------10-----10----------15--10-----|
|---------14-------14-------14----------13-----13-----13------------|
|------13-------13------------13----12----12-----12-12----------12--|
|-------------------------------------------------------------------|2x
|-------------------------------------------------------------------|
|-------------------------------------------------------------------|

Verse:
|----------------------------------|----------------------|
|----------------------------------|----------------------|
|----------------------------------|----------------------|
|----------------------------------|(2x)------------------|
|-0---3/9---3/9-0---0-5-9--5-3-0---|-----9b9b9b9b9b~------|
|----------------------------------|----------------------|
Solo:
|-------------------------------------------------------------------------|
|---------------------------------------------------------------14--------|
|--------------14--16p14-----------------14--16p14-----------16-----------|
|-----12/14---------------14-----12/14------------------------------------|
|-------------------------------------------------------------------------|
|-------------------------------------------------------------------------|

|-------------------------------------------------------------------------|
|----17h-15p-17--------15--13--15-------------13--12----------------------|
|-----------------------------------------14----------------14----16------|
|-------------------------------------------------------------------------|
|-------------------------------------------------------------------------|
|-------------------------------------------------------------------------|

|-------------------------------------------------------------------------------------|
|-------------------------------------------------------------------------------------|
|-------14-16-14----16-14~------------------------------------------------------------|
|----------------------------10--12--10--12/---16--14---10--12--10--12/---16--14~~~---|
|-------------------------------------------------------------------------------------|
|-------------------------------------------------------------------------------------|

Chorus:
|------------------------------------------|
|------------------------------------------|
|-----------12--11-------------------------|
|-12/14\12----------14~--------------------|
|------------------------------------------|
|------------------------------------------|

Intro/Outro:
|-12-----------------------------------15--|
|-----14-----------14-------14-------------|
|----------13-----------13-----------------|
|------------------------------------------|Untill End
|------------------------------------------|
|------------------------------------------|

Dont forget to rate it.
Comments