Unida - You Wish Chords & Tabs

 

You Wish Chords & Tabs

Unida Chords & Tabs

Version: 1 Type: Tab 0 ratings
1 star 2 stars 3 stars 4 stars 5 stars
comments

You Wish Tab

You wish

by Unida (the one and only Kyuss heirs) 
from the album 'coping with the urban coyote'

transcribed by Christian Reindel (creindel@gmx.de)
any questions or corrections-e-mail me

tune down one whole step

    Bass Riff - play Bass with distorsion
D:|-----------------------------------------------------------------|
A:|-----------------------------------------------------------------|
F:|-----------------------------------------------------------------|
C:|-----------------------------------------------------------------|
G:|-----------------------6-----------------------------6--6--------|
D:|-6-8-8--8--8----6-8-8-----8----6-8-8--8--8----6-8-8---8--8--/8---|
[ Tab from: http://www.guitartabs.cc/tabs/u/unida/you_wish_tab.html ]
  guitar plays something on C - for best inspiration be drunk or stoned
D:|--0--------------0-------------3----|
A:|--1--------------3-------------5----|
F:|--0--------------0-------------5----|
C:|--2--------------2-------------5----|
G:|--3--------------3-------------3----|
D:|------------------------------------|
 
 solo riff - 2 times 
D:|----------------------------------------------------------|
A:|-------------3--------------------------------------------|
F:|---5~~~~~------3~~~~~--5------3---------------------------|
C:|-------------------------5~~----3~--3--5------------------|
G:|------------------------------------------1--3~~~~~~~~~~--|
D:|----------------------------------------------------------|
 
  Distorsionriff - 4 times
 
     whoaaaaaaa     whoaaaaaaaaa
D:|--------------------------------------|
A:|--------------------------------------|
F:|--------------------------------------|
C:|--3-/-5-5--5---5-5--5-5--5-5-5-5------|
G:|--1-/-3-3--3---3-3--3-3--3-3-3-3------|
D:|--------------------------------------|

Outro with guitarsolo and distorsionriff 'til the end.


Comments