Unida - Plastic Chords & Tabs

 

Plastic Chords & Tabs

Unida Chords & Tabs

Version: 2 Type: Tab 0 ratings
1 star 2 stars 3 stars 4 stars 5 stars
comments

Plastic Tab

plastic

by Unida (the one and only Kyuss heirs) 
from the album 'coping with the urban coyote'

transcribed by Christian Reindel (creindel@gmx.de)
any questions or corrections-e-mail me

tune down one whole step
[ Tab from: http://www.guitartabs.cc/tabs/u/unida/plastic_tab_ver_2.html ]
  Main Riff - feel free for the rhythm - play it on verse and chorus
D:|---------------------------------------------------------------------|
A:|---------------------------------------------------------------------|
F:|--------------3-/-5-5-5--3-/-5-5-5-5---------------------------------|
C:|-3-/-5-5-5-5--1-/-3-3-3--1-/-3-3-3-3--3-/-5-5-5-5--------------------|
G:|-1-/-3-3-3-3--------------------------1-/-3-3-3-3--3--3-3---3-3-3-3--|
D:|---------------------------------------------------1--1-1-0-1-1-1-1--|
 
interlude
  You're gone    without a brain     you're gone  
D:|---------------------------------------------------------------|
A:|---------------------------------------------------------------|
F:|-----------------10~--10~10~10~--------------------------------|
C:|-3-/-5-5-5-(5)---------------------3-3-3-(3)--------1-1^3-333--|
G:|-1-/-3-3-3-(3)---------------------1-1-1-(1)--1^3-3------------|
D:|---------------------------------------------------------------|

back to main riff

Riff 2 - 8 times
Oh baby, well I could get used to you
D:|---------------------------------------|
A:|---------------------------------------|
F:|--------------3-/-5-5-5--3-/-5-5-5-5---|
C:|-3-/-5-5-5-5--1-/-3-3-3--1-/-3-3-3-3---|
G:|-1-/-3-3-3-3---------------------------|
D:|---------------------------------------|

Outro ('til the end and fade out)
D:|-----------------------------|
A:|-----------------------------|
F:|-----------------------------|
C:|-3/5-3/5-3/5-3/5-8-8-8-8-----|
G:|-1/3-1/3-1/3-1/3-6-6-6-6-----|
D:|-----------------------------|

end.
Comments