Unida - Nervous Chords & Tabs

 

Nervous Chords & Tabs

Unida Chords & Tabs

Version: 1 Type: Tab 0 ratings
1 star 2 stars 3 stars 4 stars 5 stars
comments

Nervous Tab

nervous

by Unida (the one and only Kyuss heirs) 
from the album 'coping with the urban coyote'

transcribed by Christian Reindel (creindel@gmx.de)
any questions or corrections-e-mail me

tune down one whole step (dropped C- tuning)

^ harmonic    
/ slide
X palm mute

Intro - make the harmonics swing
D:|-----------------------------------------------------------------|
A:|-----------------------------------------------------------------|
F:|-----------------------------------------------------------------|
C:|-0-0----5^-5^-5^-5^-5^-5^-5^-5^--5--5--5--5--5-\-7---------------|
G:|-0-0----5^-5^-5^-5^-5^-5^-5^-5^--3--3--3--3--3-\-5---------------|
C:|-0-0----5^-5^-5^-5^-5^-5^-5^-5^----------------------------------| 
[ Tab from: http://www.guitartabs.cc/tabs/u/unida/nervous_tab.html ]
Verse-riff - And you should've told me you had a nervous fuckin break down 
D:|------------------------------------------------------------------|
A:|------------------------------------------------------------------|
F:|------------------------------------------------------------------|
C:|--------------------------------------5----5----5----5----5--\--7-|
G:|-0---0-------5-5--3^5--5--5-\-8-------3----3----3----3----3--\--5-|
C:|-0---0---------------------------------------------------------|
                                                       end verseriff
D:|-------------------------------------------------------------------|
A:|-------------------------------------------------------------------|
F:|-------------------------------------------------------------------|
C:|-----------------------------------------------------5-5-5-5-5-\-7-|
G:|-0-0-------------------------------------------------3-3-3-3-3-\-5-|
C:|-0-0--17^/16^/15^/14^/13^/12^/11^/10^/9^/8^/7^/6^/5^/--------------|

Chorus - And there's a flip side to that coin
D:|-------------------------------------------------------------|
A:|---------1313-1313131315-------------------------------------|
F:|-------------------------------------------------------------|
C:|--------------------------------5--5--5--5--5-\-7------------|
G:|-0-0----------------------------3--3--3--3--3-\-5------------|
C:|-0-0---------------------------------------------------------|

little guitarlick
D:|-----------------------------------------------------------------|
A:|-----------------------------------------------------------------|
F:|-12-12-10-------------------12-12-10----------17~~~~~~-----------|
C:|----------12-10^12-12~~~~------------12-10^12--------------------|
G:|-----------------------------------------------------------------|
C:|-----------------------------------------------------------------| 

back to verseriff
then chorusriff
then guitarsolo with verseriff
after guitarsolo palmmutepart - several times

And there's a flip side to that coint. well is there?
D:|----------------------------------|
A:|----------------------------------|
F:|----------------------------------|
C:|-0-0----5^-5^-5^-X-X-X-X-X-X-X----|
G:|-0-0----5^-5^-5^-X-X-X-X-X-X-X----|
C:|-0-0----5^-5^-5^-X-X-X-X-X-X-X----| 

Outro - it's only the C-chord - feel free for the rhythm - play 'til the end
D:|---------------------------------------------|
A:|---------------------------------------------|
F:|---------------------------------------------|
C:|-0--0-0--0--7-7-7-7--0-0--0-0--0-7-7-7-------|
G:|-0--0-0--0--5-5-5-5--0-0--0-0--0-5-5-5-------|
C:|-0--0-0--0--0-0-0-0--0-0--0-0--0-0-0-0-------| 

end.
Comments