Unida - Black Woman Chords & Tabs

 

Black Woman Chords & Tabs

Unida Chords & Tabs

Version: 1 Type: Tab 0 ratings
1 star 2 stars 3 stars 4 stars 5 stars
comments

Black Woman Tab

   
black woman

by Unida (the one and only Kyuss heirs) 
from the album 'coping with the urban coyote'

transcribed by Christian Reindel (creindel@gmx.de)
any questions or corrections-e-mail me

tune down one whole step
    
   main riff
D:|-----------------------------------------------------------------|
A:|-----------------------------------------------------------------|
F:|-----------------------------------------------------------------|
C:|-7-7-7-7-7-7-7-7-7-7-7-7-7-7-7-7-7-7-------7-10--7--5--7-7-7-----|
G:|-5-5-5-5-5-5-5-5-5-5-5-5-5-5-5-5-5-5-......5--8--5--3--5-5-5-----|
D:|-----------------------------------------------------------------|

Verse riff 1  - 3 times

 Riiiiiiiiiide with me baby  Just riiiiiiiiiiide all night long.  yeah       (alright)
 Heeeeeeeeeavy like my lady Just flyyyyyyyyyyyyy all night long.  yeah       (right on)
 Some say that your crazy That doesnt mean my face is always blue Yeah       (alright)
D:|------------------------------------------------------------------------------------|
A:|------------------------------------------------------------------------------------|
F:|------------------------------------------------------------------------------------|
C:|-7-7-7-7-7-7-7-7-7-7-7-7-7-7-7-7-7-7-7-7-7-7-7-7-7-7-7-7-7-7-7-7-7--7-10--7--5--777-|
G:|-5-5-5-5-5-5-5-5-5-5-5-5-5-5-5-5-5-5-5-5-5-5-5-5-5-5-5-5-5-5-5-5-5--5--8--5--3--555-|
D:|------------------------------------------------------------------------------------|

                                            end verse riff 1   Fill 1 - 2 times
D:|----------------------------------------------------------|----------------------|
A:|----------------------------------------------------------|----------------------|
F:|----------------------------------------------------------|----------------------|
C:|-7-7-7-7-7-7-7-7-7-7-7-7-7-7-7-7-7---7-10--7--5--7-7-7----|-7-10--7--5--7-7-7----|
G:|-5-5-5-5-5-5-5-5-5-5-5-5-5-5-5-5-5---5--8--5--3--5-5-5----|-5--8--5--3--5-5-5----|
D:|----------------------------------------------------------|----------------------|

Chorus riff - 3 1/2 times

 Should it be the answer   should it be a sun?...     Fill 1 
D:|--------------------------------------------------|----------------------|
A:|--------------------------------------------------|----------------------|
F:|--------------------------------------------------|----------------------|
C:|--7--7-7--7--7-7-101010---7--7-7--7--7-7--5-5-5---|-7-10--7--5--7-7-7----|
G:|--5--5-5--5--5-5--8-8-8---5--5-5--5--5-5--3-3-3---|-5--8--5--3--5-5-5----|
D:|--------------------------------------------------|----------------------|

back to main riff
[ Tab from: http://www.guitartabs.cc/tabs/u/unida/black_woman_tab.html ]
than Verse riff 2 - 1 1/2 times

So can you find my lady can you justify the love you see tonight? yeah.  (right on)
So flyyyyyyyyyyyyyyyyy with me baby. just flyyyyyyyyyyy all night long.  (right on)*uhh*
D:|------------------------------------------------------------------------------------|
A:|------------------------------------------------------------------------------------|
F:|------------------------------------------------------------------------------------|
C:|-7-7-7-7-7-7-7-7-7-7-7-7-7-7-7-7-7-7-7-7-7-7-7-7-7-7-7-7-7-7-7-7-7--7-10--7--5--777-|
G:|-5-5-5-5-5-5-5-5-5-5-5-5-5-5-5-5-5-5-5-5-5-5-5-5-5-5-5-5-5-5-5-5-5--5--8--5--3--555-|
D:|------------------------------------------------------------------------------------|

                                             end verse riff 2  Fill 1  -  2 times
D:|----------------------------------------------------------|----------------------|
A:|----------------------------------------------------------|----------------------|
F:|----------------------------------------------------------|----------------------|
C:|-7-7-7-7-7-7-7-7-7-7-7-7-7-7-7-7-7---7-10--7--5--7-7-7----|-7-10--7--5--7-7-7----|
G:|-5-5-5-5-5-5-5-5-5-5-5-5-5-5-5-5-5---5--8--5--3--5-5-5----|-5--8--5--3--5-5-5----|
D:|----------------------------------------------------------|----------------------|

than Chorus riff - 4 times

 Riff 3 play 1 1/2 times                       Fill 1    2 times
D:|-------------------------------------------|----------------------|
A:|-------------------------------------------|----------------------|
F:|-------------------------------------------|----------------------|
C:|--7--7-7--7--7-7-10---7--7-7--7--7-7--5----|-7-10--7--5--7-7-7----|
G:|--5--5-5--5--5-5--8---5--5-5--5--5-5--3----|-5--8--5--3--5-5-5----|
D:|-------------------------------------------|----------------------|

guitarsolo is playing without rhythm guitar 

Outro Riff - 4 times
                         Black Woman... Yeah
D:|-----------------------------------------------------------------|
A:|-----------------------------------------------------------------|
F:|-----------------------------------------------------------------|
C:|-7-7-7-7-7-7-7-7-7-7-7-7-7-7-7-71010101010101010-5-5-5-5-5-5-5-5-|
G:|-5-5-5-5-5-5-5-5-5-5-5-5-5-5-5-5-8-8-8-8-8-8-8-8-3-3-3-3-3-3-3-3-|
D:|-----------------------------------------------------------------|

   Fill 1 -  2 times
D:|----------------------|----------|
A:|----------------------|----------|
F:|----------------------|----------|
C:|-7-10--7--5--7-7-7----|-7-(7)----|
G:|-5--8--5--3--5-5-5----|-5-(5)----|
D:|----------------------|----------|

end.
Comments