Unfamous Band - Wish You Were Here Chords & Tabs

 

Wish You Were Here Chords & Tabs

Unfamous Band Chords & Tabs

Version: 1 Type: Tab 0 ratings
1 star 2 stars 3 stars 4 stars 5 stars
comments

Wish You Were Here Tab

   
This is My second song i made up, better than my other i think,.. if you like it or wanna
see how it sounds e-mail me at ben_jammin42@yahoo.com for a demo tape.



  These signs | show breaks in the music

  ^=Upstroke +=down stroke   

  Intro                                                     ~=vibrate/Wah-Wah 
  --------------------|-----------------|-----------------------|--------------|
  --------------------|-----------------|-----------------------|--------------|
  -------7------------|--7--------------|--7--------------------|--------------|
  -------5--10--8--7--|--5--10--8-8-7---|--5--10----8---7--5~---|--------------|
  -----------8--6--5--|------8--6-6-5---|------8--6---5----3----|--------------|
  --------------------|-----------------|-----------------------|--------------|      
         ^   ^  ^  ^     ^   ^  ^ + ^      ^   ^  ^ ^ ^ ^  ^       

  *If you want to make this sound good with distortion try palm muting up and down strokes
   between frets.*
[ Tab from: http://www.guitartabs.cc/tabs/u/unfamous_band/wish_you_were_here_tab.html ]
                                    h=hammer on  p=pull off
   Verse 1      A                B                                    C
   ------------------------|-------------------|--------------|--------------------|
   ------------------------|-------------------|--------------|--------------------|
   -----5-5h6p5------------|-5-5h6p5-----------|Repeat Part A-|--5 5h6p5-----------|
   --------------8-6h8p6-5-|---------8-6h8p6-3-|--------------|----------8-6h8p6-10|
   ------------------------|-------------------|--------------|--------------------|
   ------------------------|-------------------|--------------|--------------------|
       ^  ^ ^ ^  ^ ^ ^ ^ ^   ^ ^  ^ ^^ ^ ^ ^  ^                  ^ ^ ^ ^ ^ ^ ^ ^ ^ 
   Fill In For Verse                                                   *=Harmonic
   ------------------------|-------------------|--------------|-------------9*-----|
   ------------9-----------|-------------------|--------------|--------------------|
   -----8-8h10---10p8------|--10-8-10-7--------|--------------|--------------------|
   -------------------10---|-------------------|--------------|--------------------|
   ------------------------|-------------------|--------------|--------------------|
   ------------------------|-------------------|--------------|--------------------|
       ^ ^ ^   ^ ^ ^  ^       ^  ^  ^ ^                                      ^     
   *Play the fill between different string levels in parts a and b**Very fast**
     for c part play at end.
   
   Chorus  A             B   /=Slide up \=Slide down
   --------------------|-------------------------------------------|------------------|
   --------------------|-------------------------------------------|----Repeat B------|
   -------11----12-----|----11-11-11-11----12-12-12-12--7-X-7-7-X--|------------------|
   -----9----10---3/5 -|--9-----9--9--9-10----10-10-10--5-X-5-5-X--|------------------|
   --------------------|-------------------------------------------|------------------|
   --------------------|-------------------------------------------|------------------|
       ^  ^  ^  ^ ^ ^     ^  ^  ^  +  ^  ^  ^  ^  +  ^  ^ + ^ ^ +
   Bridge
   ------------------------------------------------|----------------------------------|
   ------------------------------------------------|----------------------------------|
   --------11-----7---11--7------------REPEAT 3'X--|----Redo Intro--------------------|
   -----9------5-------------9---------------------|----------------------------------|
   ------------------------------------------------|----------------------------------|
   ------------------------------------------------|----------------------------------|
        ^  ^   ^  ^    ^  ^  ^    
   Verse 2
   -------------|-----------|-----------|---------------|-----------------------------|
   -------------|-----------|-----------|---------------|--REPEAT CHORUS AND BRIDGE---|
   -------------|-----------|-----------|---------------|-----------------------------|
   ---5--8p7h8--|-----7h8p7-|-----8p7h8-|--10\\8-7-8----|-----------------------------|
   -------------|--8--------|--6--------|---------------|-----------------------------|
   -------------|-----------|-----------|---------------|-----------------------------|
     
    Solo    A                                                        B  (Repeat 5 x)
   ----------------------------------------------------------------|-------------------|
   -------------8--------------------------------------------------|-9-11-9------------|
   -----7-7h9p7---7-9-----79797979~~-7-9-11-11-11-9-11-13-13-13-13-|--------11---------|
   --------------------9-------------------------------------------|-------------------|
   ----------------------------------------------------------------|-------------------|
   ----------------------------------------------------------------|-------------------|
      C      D                                            E     Repeat Once!   
   -----0--|---------------------------------------|-----------------------------------|
   --------|----9-11-9------11-13-11----13-15-13---|-15-15-17~~--17\15-15~-15\-13-15-12|
   --------|------------11-----------13----------15|-----------------------------------|
   --------|---------------------------------------|-----------------------------------|
   --------|---------------------------------------|-----------------------------------|
   --------|---------------------------------------|-----------------------------------|

   --------------------------------------------------------------------|
   ---12h13p12--10~~10h11p10-8~8h9p8-5-7-------------------------------|
   --------------------------------------7-5-5p7h5-------5-7~~-5-------| Repeat Verse 2 
   ------------------------------------------------7-5-7---------7-5-7-| then Intro and 
   --------------------------------------------------------------------| Your Done!!
   --------------------------------------------------------------------|
   
   Any Comments on kool stuff to add to this let me know at ben_jammin42@yahoo.com
   Im also gonna be making a bass tab, and lyrics. If you wanna hear how it souns
   e-mail me for a demo tape.

   *InZane Cobain*








   
Comments