Unfamous Band - Untitled Chords & Tabs

 

Untitled Chords & Tabs

Unfamous Band Chords & Tabs

Version: 1 Type: Tab 0 ratings
1 star 2 stars 3 stars 4 stars 5 stars
comments

Untitled Tab

This is a song i made myself, If you interested in a demo tape e-mail me at Ben_jammin42@yahoo.com




[ Tab from: http://www.guitartabs.cc/tabs/u/unfamous_band/untitled_tab.html ]
--------------------------------------------------------------1-----
----------9---------------7--------------7--------------4--------2~~--
------------10---------------5--------------8--------------3-------
------10---------------5--------------8--------------3-------------
----8---------------3-------------6---------------1-----------------
--------------------------------------------------------------------
reapeat 3 X;s
CHORUS
---------------------------------------------------------------------
----0-----3----0----0------0----0-----3-----0-----2-----0~----1----1h2p1-------------
--------0---0-----0----0-----0-----0-----0-----0-----0-----0----0---------------
-------------------------------------------------------------------
---------------2-----------------------------------------------------
----3----------------------3----------------------------------------


Outro

--------------------------------------------------------------
---------------------------------------------------------------
-----------0---------0----------0-------------5---3---0--////////--------
-------------0----------0----------0----5---5----3----0--////////----------
--------3---------2---------0-----------3-------------------------
------------------------------------------------------------


This is not the whole song! i will ad more
Comments