Unearth - The Great Dividers Chords & Tabs

 

The Great Dividers Chords & Tabs

Unearth Chords & Tabs

Version: 2 Type: Tab 0 ratings
1 star 2 stars 3 stars 4 stars 5 stars
comments

The Great Dividers Tab

Song title: the great dividers
Artist: unearth
Tabbed by: emilyO1991

here's the cool part of the song at about 1 minute 20 seconds
im not sure if it's exactly right, but it's pretty close...
email me with any comments/questions totalchaos73@aol.com

Fill
e-----------------|
b-----------------|
g-----------------|
d---4-2-4-0-2-----|
a-2-----------4-2-|
e-----------------|

Riff 1
e------------------------------------------------------|
b-----------------------------------------------------|
g---------------------------------------4-2-4-0-2------|
d-----4-5-2-4---4-5-4-2-2---5-5-4-0-0--------------4-2-|
a-(2)--------------------------------------------------|
e------------------------------------------------------|
[ Tab from: http://www.guitartabs.cc/tabs/u/unearth/the_great_dividers_tab_ver_2.html ]
e------------------------------------------------------|
b------------------------------------------------------|
g-------------------------------4-2-0-2--0-------0-2---|
d-(2)-4-5-4-2-4---4-5-4-2------------------4-2-4-----2-|
a-------------------------3---3------------------------|
e------------------------------------------------------|  (x2)

Riff 2
e--------------------------------------|
b-------------------------------3------|
g----4-2-4-0-2----0-----------4----4-5-|
d-(2)-----------4----2-4-0-2-----------|
a--------------------------------------|
e--------------------------------------|

e----------------------------------|
b----------------------------------|
g--5-4-5-2-4-0-2---0-------5-4-2-2-|
d----------------4----2-4----------|
a----------------------------------|
e----------------------------------|

e---------------------------------------------------------|
b---------------------------------------------------------|
g-2-0-2---0--------------2-0-----4--2-4---5-4-2-0---------|
d-------4----2-4-0-2---0-----4-2------------------4-2-1-2-|
a--------------------4------------------------------------|
e---------------------------------------------------------|   (x2)

well there it is... yeah i'll figure out the rest later
Comments