Unearth - Oncoming Storm Chords & Tabs

 

Oncoming Storm Chords & Tabs

Unearth Chords & Tabs

Version: 1 Type: Tab 0 ratings
1 star 2 stars 3 stars 4 stars 5 stars
comments

Oncoming Storm Tab

   
this here is a mix of the album oncoming storm from unearth it is bad ass learn the album I did
MIX BY JOE ADZHIYEV
 Visit MetalTabs.com for more metal tablature

Band: Unearth
Album: The Oncoming Storm
Song: The Great Dividers

Copyright (c) Metal Blade Records (2004)
Version 1.0 - (27 - 11 - 2004)

Transcribed By: Thompson Vo
Email: (psychobillypnr@yahoo.com)
       I found this tab from a guy named exoDo, so just give him the credit for tabing it.

Legend
.  - palm mute           /  - slide up to
\\  - slide down to       ~  - vibrato
h  - hammer on           b  - Bend
p  - pull off            Suffixes for bend
t  - tap                 f  - full bend    h - half bend
ph - pinched harmonic    q  - quarter bend t - tap bend
*  - see comment         ^  - Hold bend    r release bend
x  - Stuccatto           ~  - vibrato bend
,  - slight palm mute    () - ghost note, sustained note
\"  - tremolo note        <> - Trill
กว  - pick down to top

Tuning: B F# B E G# C#

Intro Both Guitars
|---------------|
|---------------|
|---------------|
|-0---x\\\\-----|
|-0---x\\\\-----|
|-0---X\\\\-----|


Intro/Verse
Both Guitars Play X4
|------------------------------------------------------------------|
|------------------------------------------------------------------|
|------------------------------------------------------------------|
|-------6----------------6-----------------------------------3-1---|
|---5-----6-5-3-5----5-----6-5-3-8---8---8-7h8p7-5-------3-------3-|
|-0---0------------0---0-----------0---0-----------0-6-0---0-------|
  .   .            .   .           .   .           .   .   .

|-------------------------------------------------------------------|
|-------------------------------------------------------------------|
|-------------------------------------------------------------------|
|-------6----------------6------------------------------------------|
|---5-----6-5-3-5----5-----6-5-3-8---8---8-7h8p7-5--------------6-5-|
|-0---0------------0---0-----------0---0-----------0-3-6-8--0-0-----|
  .   .            .   .           .   .           .        . .


Riff 2
Gtr I                  1.       2.
|---------------------|--------|--------|
|---------------------|--------|--------|
|---------------------|--------|--------|
|-7----5--7----3--7---|-3---10-|-10---5-|
|-5----3--5----1--5---|-1----8-|--8---3-|
|---------------------|--------|--------|

Gtr II
                                            1.	    2.
|-----------------------------------------|--------|-------------|
|-----------------------------------------|--------|-------------|
|-7--7-7/8\\7--7---7--7-7/8\\7--7---7-7/8\\7-|-3--10--|----------|
|-----------------------------------------|--------|-10---5------|
|-5--5-5/6\\5--5---5--5-5/6\\5--5---5-5/6\\5-|-1---8--|--8---3---|
|---0-0----------0-0-------------0-0------|--------|-------------|
    . .          . .             . .

Riff 3
Gtr I
|-----------------------------------------------------|
|-----------------------------------------------------|
|-7~------------7~------------7~----------------------|
|-------------------------------------------3---10----|
|-5~------------5~------------5~------------1----8----|
|-----0-0-0-0-0-----0-0-0-0-0-----0-0-0-0-0-----------|
      . . . . .     . . . . .     . . . . .

Gtr II
|-----------------------------------------------------|
|-----------------------------------------------------|
|-7~------------7~------------7~----------------------|
|-------------------------------------------3---3-----|
|-5~------------5~------------5~------------1---1-----|
|-----0-0-0-0-0-----0-0-0-0-0-----0-0-0-0-0-----------|
      . . . . .     . . . . .     . . . . .

Both Gtrs
|-------------------------------------------------|
|-------------------------------------------------|
|-7~------------7~------------7~------------------|
|------------------------------------------10---5-|
|-5~------------5~------------5~------------8---3-|
|-----0-0-0-0-0-----0-0-0-0-0-----0-0-0-0-0-------|
      . . . . .     . . . . .     . . . . .


Riff 4 X2
Both Gtrs
|------------------------------------------------------------|
|------------------------------------------------------------|
|------------------------------------------------------------|
|------------------------------------------------------------|
|-0---------------------------0--------------0-----3---6-5-6-|
|-0--0-2-0-3-0----0-0-0-6-5-3-0--0-2-0-3-0-0-0---0---0-------|
     .            . . .          .               .   .

Gtr I
|------------------------------------------------------------|
|------------------------------------------------------------|
|------------------------------------------------------------|
|------------------------------------------------------------|
|-0---------------------------0--------------5---8-7-8-5-7-3-|
|-0--0-2-0-3-0----0-0-0-6-5-3-0--0-2-0-3-0-0-----------------|
     .            . . .          .

Gtr II
|------------------------------------------------------------|
|------------------------------------------------------------|
|------------------------------------------------------------|
|--------------------------------------------3---7-5-7-3-5-2-|
|-0---------------------------0------------------------------|
|-0--0-2-0-3-0----0-0-0-6-5-3-0--0-2-0-3-0-0-----------------|
     .            . . .          .


Riff  X2
Gtr I
|---------------------------------------------------------|
|---------------------------------------------------------|
|---------------------------------------------------------|
|---------------------------------------------------------|
|-0------------------------1------------------------------|
|-0------------------------1------------------------------|

Gtr II
|---------------------------------------------------------|
|---------------------------------------------------------|
|---------------------------------------------------------|
|-----7-8-7-5-7---7-8-7-5----8-8-7-------10-8-10-7-8------|
|-0----------------------6---------8-8---------------10-8-|
|-0--0-0---------0-0--------0-0---------------------------|
     . .         . .        . .

Gtr I
|--------------------------------------------------1---|
|------------------------------------------------------|
|----------------------------------------------------3-|
|------------------------------------------------------|
|-5------------------------1-------------------1-1-----|
|-5------------------------1-------------------1-1-----|
                                               . .

Gtr II
|------------------------------------------------------|
|------------------------------------------------------|
|------------------------------7-5---------------------|
|-----7-8-7-5-7---7-8-7-5----5-----7-8---8-7-5---5-7-8-|
|------------------------6---------------------8-------|
|----0-0---------0-0--------0-0------------------------|
     . .         . .        . .


Riff 6 X2
Gtr I
|-----------------------------------------------------|
|-----------------------------------------------------|
|-----------------------------------------------------|
|------12-10-12----10----------------10-12-13-15-13---|
|-10------------13----12-13-10-12-13------------------|
|-----------------------------------------------------|

|------------------------------------------------|
|------------------------------------------------|
|------------------------------------------------|
|-13-12-13----12----------------12-13-12-10-10---|
|----------15----13-15-12-13-15------------------|
|------------------------------------------------|

|------------------------------------------------------------------------|
|------------------------------------------------------------------------|
|------------------------------------------------------------------------|
|-10-8-10-7-8----7------7-8-10-8-7------8--7--8---10---8-7---------------|
|-------------10---8-10------------8-----------------------10-8-10-8-10--|
|------------------------------------------------------------------------|


Gtr II
|-----------------------------------------|
|-----------------------------------------|
|-----------------------------------7-----|
|-----8-7-8----7-------------7-8-10---8---|
|-5---------10---8-10-7-8-10--------------|
|-----------------------------------------|

|-------------------------------------|
|-------------------------------------|
|-------------------------------------|
|-8-8-8-7-8----7------7-8-10-8-7------|
|-----------10---8-10------------8----|
|-------------------------------------|

|-----------------------------------------------------------|
|-----------------------------------------------------------|
|----------------------7-8-7-------7--5--7--8---7-5-------7-|
|---------------7-8-10-------8-7--------------------8-7-8---|
|-8-8-8-8-8-8-8---------------------------------------------|
|-----------------------------------------------------------|


Riff 7
Gtr I
|---------------------------------------------------------------|
|-----15--16--15-------15--16--15-------15--16--15----16--15----|
|-14---------------14---------------14------------------------14|
|---------------------------------------------------------------|
|---------------------------------------------------------------|
|---------------------------------------------------------------|

Gtr II
|---------------------------------------------------------------------|
|---------------------------------------------------------------------|
|---------------------------------------------------------------------|
|-------------------------------------------------------------x\\-----|
|-0-----------------------------------------------------------x\\-----|
|-0-----------------------------------------------------------x\\-----|


Riff 8
|------------------------------------------------|
|------------------------------------------------|
|------------------------------------------------|
|------------------------------------------------|
|-0---0-0--0-0---0---0-0--0-0----0-0-7-0-0-0-8---|
|-0---0-0--0-0---0---0-0--0-0----0-0-7-0-0-0-8---|
  .   . .  . .   .   . .  . .    . .   . . .

|-------------------------------------------------|
|-------------------------------------------------|
|-------------------------------------------------|
|-------------------------------------------------|
|-0---0-0--0-0---0---0-0--0-0----0-0-7-0-0-0-10---|
|-0---0-0--0-0---0---0-0--0-0----0-0-7-0-0-0-10---|
  .   . .  . .   .   . .  . .    . .   . . .

|------------------------------------------------|
|------------------------------------------------|
|------------------------------------------------|
|------------------------------------------------|
|-0---0-0--0-0---0---0-0--0-0----0-0-7-0-0-0-8---|
|-0---0-0--0-0---0---0-0--0-0----0-0-7-0-0-0-8---|
  .   . .  . .   .   . .  . .    . .   . . .

|------------------------------------------------------|
|------------------------------------------------------|
|------------------------------------------------------|
|------------------------------------------------------|
|-0---0-0--0-0---0---0-0--0-0---0---0-0--0-0---0--0--0-|
|-0---0-0--0-0---0---0-0--0-0---0---0-0--0-0---0--0--0-|
  .   . .  . .   .   . .  . .   .   . .  . .   .  .  .

Both Gtrs
Play X4
|------------------------------------------------------------|
|------------------------------------------------------------|
|------------7--------------8--------------12--------------11|
|------------------------------------------------------------|
|-0---0-0--0-5---0---0-0--0-6---0---0-0--0-10---0---0-0--0-9-|
|-0---0-0--0-----0---0-0--0-----0---0-0--0------0---0-0--0---|
  .   . .  .     .   . .  .     .   . .  .      .   . .  .


|--------|
|--------|
|--------|
|--------|
|-0------|
|-0------|


Repeat Intro/Verse X2

Fill
|-----------------------------------------------|
|-----------------------------------------------|
|-----------------------------------------------|
|----------------------------------------3-1----|
|-0----------------------------------3-------3--|
|-0----------------------------0-6-0---0--------|
                               .   .   .

Riff 9
Gtr I
|-------------------------------------------------------------|
|-------------------------------------------------------------|
|-------------------------------------------------------------|
|-------------------------------------------------------------|
|---------------0---------------1-------------0------------6-5|
|-0-0-0-0-0-0-0-0-0-0-0-0-0-0-0-1-0-0-0-0-0-0-0--3-6-8-0-0----|
  . . . . . . .   . . . . . . .   . . . . . .          . .

|--------------------------------------------------------------|
|--------------------------------------------------------------|
|--------------------------------------------------------------|
|---------------------------------------------------------3-1--|
|---------------0---------------1-------------0-------3-------3|
|-0-0-0-0-0-0-0-0-0-0-0-0-0-0-0-1-0-0-0-0-0-0-0-0-6-0---0------|
  . . . . . . .   . . . . . . .   . . . . . .   .   .   .

|------------------------------------------------------------|
|------------------------------------------------------------|
|------------------------------------------------------------|
|------------------------------------------------------------|
|---------------0---------------1-------------------------6-5|
|-0-0-0-0-0-0-0-0-0-0-0-0-0-0-0-1-0-0-0-0-0-0-0-3-6-8-0-0----|
  . . . . . . .   . . . . . . .   . . . . . . .       . .

Riff 10 X2
|------------------------------------------------------------------|
|------------------------------------------------------------------|
|------------------------------------------------------------------|
|-------------------------------------------------------------3-1--|
|---------------000---------------111-------------0-------3-------3|
|-0-0-0-0-0-0-0-000-0-0-0-0-0-0-0-111-0-0-0-0-0-0-0-0-6-0---0------|
  . . . . . . . ... . . . . . . . ... . . . . . .   .   .   .

|----------------------------------------------------------------|
|----------------------------------------------------------------|
|----------------------------------------------------------------|
|----------------------------------------------------------------|
|---------------000---------------111-------------0----------6-5-|
|-0-0-0-0-0-0-0-000-0-0-0-0-0-0-0-111-0-0-0-0-0-0-0-3-6-8-0-0----|
  . . . . . . . ... . . . . . . . ... . . . . . .         . .


Fill
|--------|
|--------|
|--------|
|--x\\\\---|  Pick Slide
|--x\\\\---|
|--X\\\\---|


Outro
Gtr 1
|-------------------------------------------------------|
|-------------------------------------------------------|
|-------------------------------------------------------|
|-------------------------------------------------------|
|-0--0--0--0--0--0--0--0--0--0--0--0--0--0--0--0--0--1--|
|-0--0--0--0--0--0--0--0--0--0--0--0--0--0--0--0--0--1--|
  .  .  .  .  .  .  .  .  กว  .  .  .  .  .  .  .  .

|----------------------------------------------------|
|----------------------------------------------------|
|----------------------------------------------------|
|-------------------------------------------3--1-----|
|-0--0--0--0--0--0--0--0--0-----------3-----------3--|
|-0--0--0--0--0--0--0--0--0--0--6--0-----0-----------|
  .  .  .  .  .  .  .  .  กว  .     .     .

|-------------------------------------------------------|
|-------------------------------------------------------|
|-------------------------------------------------------|
|-------------------------------------------------------|
|-0--0--0--0--0--0--0--0--0--0--0--0--0--0--0--0--0--1--|
|-0--0--0--0--0--0--0--0--0--0--0--0--0--0--0--0--0--1--|
  .  .  .  .  .  .  .  .  กว  .  .  .  .  .  .  .  .

|---------------------------------------------------|
|---------------------------------------------------|
|---------------------------------------------------|
|---------------------------------------------------|
|-0--0--0--0--0--0--0--0--0-----------------6--5--0-|
|-0--0--0--0--0--0--0--0--0--3--6--8--0--0--------0-|
  .  .  .  .  .  .  .  .  กว           .  .


Gtr II
|-------------------------------------------------------|
|-------------------------------------------------------|
|-------------------------------------------------------|
|-------------------------------------------------------|
|-0--0--0--0--0--0--0--0--0--0--0--0--0--0--0--0--0--1--|
|-0--0--0--0--0--0--0--0-----0--0--0--0--0--0--0--0-----|
  .  .  .  .  .  .  .  .     .  .  .  .  .  .  .  .

|----------------------------------------------------|
|----------------------------------------------------|
|----------------------------------------------------|
|-------------------------------------------3--1-----|
|-0--0--0--0--0--0--0--0--0-----------3-----------3--|
|-0--0--0--0--0--0--0--0-----0--6--0-----0-----------|
  .  .  .  .  .  .  .  .     .     .     .

|-------------------------------------------------------|
|-------------------------------------------------------|
|-------------------------------------------------------|
|-------------------------------------------------------|
|-0--0--0--0--0--0--0--0--0--0--0--0--0--0--0--0--0--1--|
|-0--0--0--0--0--0--0--0-----0--0--0--0--0--0--0--0-----|
  .  .  .  .  .  .  .  .     .  .  .  .  .  .  .  .

|---------------------------------------------------|
|---------------------------------------------------|
|---------------------------------------------------|
|---------------------------------------------------|
|-0--0--0--0--0--0--0--0--0-----------------6--5--0-|
|-0--0--0--0--0--0--0--0-----3--6--8--0--0--------0-|
  .  .  .  .  .  .  .  .              .  .
Song:      Failure
Band:      Unearth
Album:     The Oncoming Storm
Tabbed By: Justin Muir (aim:THSeeds420)

Key: v - vibrato
     s - slide
     p - pull-off
     h - hammer-on
    PM - Palm Mute
   xx/ - Pick Slide
    ph - Pinch Harmonic

Best Viewed with: Lucida Console Size: 10 with atleast 1024x768 res.

Times are aprox.

Buz McGrath - Left Channel
Ken Susi    - Right Channel

Note: There are a few parts I need to finish but here is most of it :-) enjoy - don't 
Questions/Corrections, IM/PM me.

Buz Intro: *Incomplete*
00:00-00:09
E|------------------------|
B|--------7-------------7-|
G|-6---6----6---------6---|
D|---7--------7-----7-----|
A|--------------9-9-------|
E|------------------------|
B|------------------------|
PM                . . . .


Ken Intro:
00:00-00:09
E|------------------------|
B|------------------------|
G|------------------------|
D|------------------------|
A|------------------------|
E|-9---s--5---s--9---s--3-|
B|-7---s--3---s--7---s--1-|


Buz Verse 1:
00:09-00:13
E|----------------------------------------------------------------------|
B|----------------------------------------------------------------------|
G|----------------------------------------------------------------------|
D|----------------------------------------------------------------------|
A|-------7--------7--10---9---7s9s7------7-9-10-9----------12-10-9h10p9-|
E|-0-000---0-10-0--0----0---0-------8888----------10101010--------------|
B|----------------------------------------------------------------------|
PM . ...   .    .  .    .   .       ....          ........

Buz Verse 2:
00:13-00:18
E|------------------------------------------------------------------|
B|------------------------------------------------------------------|
G|------------------------------------------------------------------|
D|-------9---7------------9---7s9s7---------------------------------|
A|---------------10---9----------------9-10-12-10-9--10-9----9-7----|
E|-0-000---0---0----0---0---0-------10--------------------10-----10-|
B|------------------------------------------------------------------|
PM . ...   .   .    .   .   .

Buz Verse 3:
00:18-00:22
E|--------------------------------------------------------------------------|
B|--------------------------------------------------------------------------|
G|--------------------------------------------------------------------------|
D|---------------------9---7------------------------------------------------|
A|-------10---9---10-----------10s12s10------7-9-10-9----------12-10-9h10h9-|
E|-0-000----0---0----0---0---0----------8888----------10101010--------------|
B|--------------------------------------------------------------------------|
PM . ...    .   .    .   .   .          ....          ........

Buz Verse 4:
00:22-00:27
E|------------------------------------------------------------------|
B|------------------------------------------------------------------|
G|------------------------------------------------------------------|
D|-------9---7------------9---7s9s7---------------------------------|
A|---------------10---9----------------9-10-12-10-9--10-9----9-7----|
E|-0-000---0---0----0---0---0-------10--------------------10-----10-|
B|------------------------------------------------------------------|
PM . ...   .   .    .   .   .


Buz Post-Verse 1:
00:27-00:31
E|-----------------------------------|
B|-----------------------------------|
G|-----------------------------------|
D|-9---------------------------------|
A|-7-----7-10-9----------7---10-9----|
E|----00--------00-5-7-8---8------10-|
B|-----------------------------------|
PM    ..        ..

Buz Post-Verse 2:
00:31-00:35
E|-----------------------------------------------------------|
B|-----------------------------------------------------------|
G|-----------------------------------------------------------|
D|-9---------------------------------------------------------|
A|-7-----7-10-9--------------9---10---12---10----9h10p9----9-|
E|----00--------00--5-7-8-00---0----0----0----00--------10---|
B|-----------------------------------------------------------|
PM    ..        ..        ..   .    .    .    ..        ..

Buz Post-Verse 3:
00:35-00:39
E|----------------------------------|
B|----------------------------------|
G|----------------------------------|
D|--------7-9-7---------------9-7---|
A|-10----------------7-7-10-7-----9-|
E|-----00-------00-8----------------|
B|----------------------------------|
PM     ..       ..     .

Buz Post-Verse 4:
00:39-00:43
E|-------------------------------------------------------|
B|-------------------------------------------------------|
G|-------------------------------------------------------|
D|--------7-9-7-------------7---9---10---9----7h9p7----7-|
A|-10----------------7-7----------------------------10---|
E|-----00-------00-8-----00---0---0----0---00------------|
B|-------------------------------------------------------|
PM     ..       ..       ..   .   .    .   ..       ..


Repeat Verse Riffs: 00:43-1:01


Buz Breakdown:
1:01-1:07 1:07-1:13
E|-------|----------------------------------------------------------|
B|-------|----------------------------------------------------------|
G|-------|----------------------------------------------------------|
D|-------|----------------------------------------------------------|
A|-2-----|----------------------------------------------------55555-|
E|-2-----|-xx\--8s7--------8s7------55555-8s7--------8s7------------|
B|-0-----|----------000000-----0000-----------000000-----0000-------|

1:13-1:19
E|-------------------------------------------------------|
B|-------------------------------------------------------|
G|-------------------------------------------------------|
D|-------------------------------------------------------|
A|----------------------------------------------------55-|
E|-xx\--8s7--------8s7------55555-8s7--------8s7---------|
B|----------000000-----0000-----------000000-----0000----|

Buz Breakdown: *Incomplete*
E|-----------------------------------------------------|
B|-----------------------------------------------------|
G|-----------------------------------------------------|
D|-----------------------------------------------------|
A|-------------------------------------------7-6-------|
E|-8s7--------8s7-----------5-7--------------------8s7-|
B|-----000000-----blahblah------morepmshere---0--0-----|
PM     ......     ........      ...........   .  .

Buz Breakdown 1:
1:43-1:55
E|------------------------------------------------------------------|
B|------------------------------------------------------------------|
G|------------------------------------------------------------------|
D|------------------------------------------------------2-----------|
A|--------------------------------------------2p3-2-3-5---5-4-2h3p2-|
E|-222222---2222---FOLLOW PM PATTERN---222222-----------------------|
B|-000000---0000-----------------------000000-----------------------|
PM ......   ....   .................   ......     . . .   . .

Buz Breakdown 2:
1:55-2:01
E|----------------------------------------------------|
B|----------------------------------------------------|
G|----------------------------------------------------|
D|----------------------------------------------------|
A|----------------------------------------------------|
E|-222222---2222---FOLLOW PM PATTERN---222222---------|
B|-000000---0000-----------------------000000--5v(ph)-|
PM ......   ....   .................   ......


End of Post-Breakdown:
2:01-2:08
E|-----------------------------------|
B|-----------------------------------|
G|-----------------------------------|
D|-------------------12-10-9---------|
A|---------------------------12-10-9-|
E|-SAME PM PATTERN-------------------|
B|-----------------------------------|

Buz:
2:08-2:11
E|-----------------------------------|
B|-----------------------------------|
G|-----------------------------------|
D|-9---------------------------------|
A|-7-----7-10-9----------7---10-9----|
E|----00--------00-5-7-8---8------10-|
B|-----------------------------------|
PM    ..        ..              .

Buz:
2:12-2:15
E|-----------------------------------------------------------|
B|-----------------------------------------------------------|
G|-----------------------------------------------------------|
D|-9---------------------------------------------------------|
A|-7-----7-10-9--------------9---10---12---10----9h10p9----9-|
E|----00--------00--5-7-8-00---0----0----0----00--------10---|
B|-----------------------------------------------------------|
PM    ..        ..             .    .    .    ..

Buz: (note the vibrato)
2:16-2:19
E|-----------------------------------|
B|-----------------------------------|
G|-----------------------------------|
D|-----------------------------------|
A|-7v----7-10-9----------7---10-9----|
E|----00--------00-5-7-8---8------10-|
B|-----------------------------------|
PM    ..        ..

Buz:
2:19-2:23
E|-----------------------------------------------------------|
B|-----------------------------------------------------------|
G|-----------------------------------------------------------|
D|-9---------------------------------------------------------|
A|-7-----7-10-9--------------9---10---12---10----9h10p9----9-|
E|----00--------00--5-7-8-00---0----0----0----00--------10---|
B|-----------------------------------------------------------|
PM    ..        ..        ..   .    .    .    ..        ..

Backing Chords:
2:23-2:38
E|-----------------------|
B|-----------------------|
G|-----------------------|
D|-----------------------|
A|-2--------------7---10-|
E|-0----2----3----5---8--|
B|------0----1----5---8--|


2:28-2:54 - Same chords (rythm change)


Buz Octave Shape:
E|---------------------------|
B|---------------------------|
G|-9--12-11-12------14-12-14-|
D|-x--x--x--x---12--x--x--x--|
A|-7--10-9--10--X---12-10-12-|
E|--------------10-----------|
B|---------------------------|

Buz Outro:
2:54-3:02
E|------------------------------------------|
B|------------------------------------------|
G|------------------------------------------|
D|------------------------------------------|
A|------------------------------------------|
E|-------7--------5--------8--s-------3-5-4-|
B|-0-000----0-000----0-000------0-000-------|
PM . ...    . ...    . ...      . ...

Buz:
3:02-END
E|--------------------------------------------------------------------------|
B|--------------------------------------------------------------------------|
G|--------------------------------------------------------------------------|
D|--------------------------------------------------------------------------|
A|--------------------------------------------------------------------------|
E|--------------------------------------------------------------------3-5-4-|
B|-0-000---0-000---0-000---0-000-0-0000-0-000---0-000---0-000---0-000-------|
PM . ...   . ...   . ...   . ... . .... . ...   . ...   . ...   . ...
Lie To Purify
Uneath
The On-Coming Storm
7-String Guitar

Key:
h - hammer on
~ - vibrato
p - pull off
b - bend
/\ - Slide

Riff 1
Guitar 1
E|-------------------------------------------------------------------------|
B|-------------------------------------------------------------------------|
G|-------------------------------------------------------------------------|
D|--------------------------------------------------------------------6h7--|
A|-----------5-------------------------------5---------------------7h8-----|
E|--5h7-7-5h7-7p5-5h7--888-7-888-7--5h7-7-5h7-7p5-5h7--888-7-8-7-8---------|
B|-0-----0-----------6-666-5-666-5-0-----0-----------6-666-5-6-5-6---------|

E|----------------------------------------------------------------|
B|----------------------------------------------------------------|
G|----------------------------------------------------------------|
D|----------------------------------------------------------------|
A|-----------5--------------------5h7p5---------------------------|
E|--5h7-7-5h7-7p5-5h7------5-7-5-7-----7-5-----5--8-7-5-----------|
B|-0-----0-----------00-5-7---------------0-5h7-7-6-5-3-----------|

Guitar 2
E|-------------------------------------------------------------------------|
B|-------------------------------------------------------------------------|
G|-----------7-------------------------------7-----------------------------|
D|--7h9-9-5h7-----------------------7h9-9-7h9-------------------------6h7--|
A|-------------------------------------------5---------------------7h8-----|
E|--5h7-7-5h7-7p5-5h7--888-7-888-7--5h7-7-5h7-7p5-5h7--888-7-8-7-8---------|
B|-0-----0-----------6-666-5-666-5-0-----0-----------6-666-5-6-5-6---------|

E|----------------------------------------------------------------|
B|----------------------------------------------------------------|
G|-----------7--------------------7h9p7---------------------------|
D|----9-9-----------9------7-9-7-9-----9-5-----7------------------|
A|-----------5----------7-9-----------------7h9-9-----------------|
E|--5h7-7-----------------------------------------8-7-5-----------|
B|-0-----0-----------00-------------------0-------6-5-3-----------|

Riff 2
E|-------------------------------------------------------------------------|
B|-------------------------------------------------------------------------|
G|-------------------------------------------------------------------------|
D|-------------------------------------------------------------9-7-5-------|
A|------5----------7-7-------5--------5-----------5---------5-5-----9-7-5--|
E|-7--9--9-5-7----9-9---7---9-9-5--7-9-9-7-5-7---9-9-5-7---9-9-------------|
B|--00--------00---------00-------7-----------00--------00-----------------|

Riff 3
Guitar 1
E|----------------------------------------------------------------|
B|----------------------------------------------------------------|
G|----------------------------------------------------------------|
D|----------------------------------------------------------------|
A|----9999999-777777-555555-7777777-------------------------------|
E|----7777777-555555-333333-5555555-------------------------------|
B|----------------------------------------------------------------|


Guitar 2
E|----------------------------------------------------------------|
B|----------------------------------------------------------------|
G|----------------------------------------------------------------|
D|-5--------------------------------------------------------------|
A|--9-7-5----7-5----------------5h7h9-5---------------------------|
E|-------9-5----9-7-5-5-7-8-7-55----------------------------------|
B|-------------------8--------------------------------------------|

Riff 4
E|----------------------------------------------------------------|
B|----------------------------------------------------------------|
G|------------------------------------------6-6-7~-6--------------|
D|--7-5-7-5------------5---------7-5-7-9-7-9-9-------9h11p9-9-7-5-|
A|-5-9-----9-7--5-7-5~--9-7-5-7-5-9----------------------------9--|
E|-------------5-----------9--------------------------------------|
B|----------------------------------------------------------------|

Riff 5
E|-------------------------------------------------------------------------|
B|-------------------------------------------------------------------------|
G|-------------------------------------------------------------------------|
D|-------------------------------------------------------------9-7-5-------|
A|------5----------7-7-------5--------5-----------5---------5-5-----9-7-5--|
E|-7--9--9-5-7----9-9---7---9-9-5--7-9-9-7-5-7---9-9-5-7---9-9-------------|
B|--00--------00---------00-------7-----------00--------00-----------------|


*Riff 6
E|----------------------------------------------------------------|
B|----------------------------------------------------------------|
G|----------------------------------------------------------------|
D|----------------------------------------------------------------|
A|----------------------------------------------------------------|
E|---------------------9-10-9---------------------9-10-9----------|
B|-000-00000-000-00000-7-8--7-000-00000-000-00000-7-8--7----------|

E|------------------------------------------------------------|-----|
B|------------------------------------------------------------|-----|
G|------------------------------------------------------------|-----|
D|------------------------------------------------------------|-----|
A|------------------------------------------------------------|-----|
E|------------------------------------------------------------|2--3-|
B|-000-00000-000-00000-7h0-7h8 7-000-00000-000-00000-7h8--7h8-|0--1-|


Riff 7
Guitar 1
E|----------------------------------------|
B|----------------------------------------|
G|----------------------------------------|
D|----------------------------------------|
A|-7-9-10-5-10-7--------------------------|
E|-5-7-8--3-8--5--------------------------|
B|----------------------------------------|

Guitar 2
E|----------------------------------------------------------------------|
B|----------------------------8-6-5-------------------------------------|
G|------------9-7-5---0-4-5-0------5--------9-7-5--------7-10-9-7-------|
D|-x-7-9-10-7-------9---------------x-5-7-9------9-7-5-9----------10-9--|
A|----------------------------------------------------------------------|
E|----------------------------------------------------------------------|
B|----------------------------------------------------------------------|

Riff 8
Guitar 1
E|-------------------------------------------------------------------------|
B|-------------------------------------------------------------------------|
G|-------------------------------------------------------------------------|
D|--------------------------------------------------------------------6h7--|
A|-----------5-------------------------------5---------------------7h8-----|
E|--5h7-7-5h7-7p5-5h7--888-7-888-7--5h7-7-5h7-7p5-5h7--888-7-8-7-8---------|
B|-0-----0-----------6-666-5-666-5-0-----0-----------6-666-5-6-5-6---------|

E|----------------------------------------------------------------|
B|----------------------------------------------------------------|
G|----------------------------------------------------------------|
D|----------------------------------------------------------------|
A|-----------5--------------------5h7p5---------------------------|
E|--5h7-7-5h7-7p5-5h7------5-7-5-7-----7-5-----5--8-7-5-----------|
B|-0-----0-----------00-5-7---------------0-5h7-7-6-5-3-----------|

Guitar 2
E|-------------------------------------------------------------------------|
B|-------------------------------------------------------------------------|
G|-----------7-------------------------------7-----------------------------|
D|--7h9-9-5h7-----------------------7h9-9-7h9-------------------------6h7--|
A|-------------------------------------------5---------------------7h8-----|
E|--5h7-7-5h7-7p5-5h7--888-7-888-7--5h7-7-5h7-7p5-5h7--888-7-8-7-8---------|
B|-0-----0-----------6-666-5-666-5-0-----0-----------6-666-5-6-5-6---------|

E|----------------------------------------------------------------|
B|----------------------------------------------------------------|
G|-----------7--------------------7h9p7---------------------------|
D|----9-9-----------9------7-9-7-9-----9-5-----7------------------|
A|-----------5----------7-9-----------------7h9-9-----------------|
E|--5h7-7-----------------------------------------8-7-5-----------|
B|-0-----0-----------00-------------------0-------6-5-3-----------|

Band-Unearth
Song-Black Hearts Now Reign
Album-The Oncoming Storm
Label-Metal Blade Records

Tuning- B F# B E G# C#

()-ghost note.You can hit it but you dont have to.
\\ -slide up
/ -slide down

This is most of the tab.I think there is only 1 or 2 parts missing and Im working on right now.
This is the first single of their lastest release.

Intro
|------------------------------------------------------------------------------------------------------------|
|------------------------------------------------------------------------------------------------------------|
|------------------------------------------------------------------------------------------------------------|
|12//--------12/--10/----12/---------12/---10/---8/-----------8\\----10/--12\\13/12----------12-10-12\\14/12-|
|10//--------10/---8/----10/---------10/----8/---6/-----------6\\-----8/--10\\11/10----------10-8--10\\12/10-|
|-----0-0-000---0-(8/)-0-----0-0-000-----0-(8/)-(6/)-0-0-000-(6\\)-0-(8/)----------0-00-0-0------------------|
PM    . . ...   .      .     . . ...     .           . . ...       .               . .. . .

Interlude 1 (working on)

Interlude 2 (somthing like that)
|----------------------------------------------|
|----------------------------------------------|
|----------------------------------------------|
|----------------------------------------------|
|--------5h8------10p8p7-------5h8-12/10p8-7h8-|
|-0-000-0---0-00-0------0-000-0----------------|
PM. ... .   . .. .      . ... .

Interlude 3 (Gtr.1) (strum for however long is needed)
|------------|
|------------|
|-12----13---|
|--x-----x---|
|-10----11---|
|------------|

Interlude 3 (Gtr.2) (let notes ring)
|------------|
|------------|
|------------|
|-5~----6~---|
|-5~----6~---|
|-5~----6~---|

Breakdown
|--------|------------------|
|--------|------------------|
|--------|------------------|
|--------|----7-------------|
|--------|----5-------------|
|-0-0-0~-|--00--000-0-0--00-|
PM. . .     ..  ... . .  ..

Interlude 4
|------------------------------------------------------|
|------------------------------------------------------|
|------------------------------------------------------|
|------------------------------------------------------|
|----5h8---5h8---3h7---3h7---8h12---8h12---7h10---7h10-|
|-000---000---000---000---000----000----000----000-----|
Pm...   ...   ...   ...   ...    ...    ...    ...

Interlude 4 (Gtr.1) (play after playing above riff twice) (strum for however long is needed)
|----------------|
|----------------|
|-14--12--17--16-|
|--x---x---x---x-|
|-12--10--15--14-|
|----------------|

Interlude 5 (Gtr.1)
|----------------------------------------------------------------------------------------------------------|
|----------------------------------------------------------------------------------------------------------|
|----------------------------------------------------------------------------------------------------------|
|-12------12/10\\12------12/10\\12------13/12\\13------13/12\\13------15/14\\15------15/14\\15--12-10------|
|-10------10/-8\\10------10/-8\\10------11/10\\11------11/10\\11------13/12\\13------13/12\\13--10-8--10-8-|
|----0000-----------0000-----------0000-----------0000-----------0000-----------0000------------------10-8-|
PM   ....           ....           ....           ....           ....           ....

Interlude 5 (Gtr.2)
|----------------------------------------------------------------------------------------------------------|
|----------------------------------------------------------------------------------------------------------|
|----------------------------------------------------------------------------------------------------------|
|-12------12/10\\12------12/10\\12------13/12\\13------13/12\\13------15/14\\15------15/14\\15--12-10------|
|-10------10/-8\\10------10/-8\\10------11/10\\11------11/10\\11------13/12\\13------13/12\\13--10-8--10-8-|
|-----------------------------------------------------------------------------------------------------10-8-|

Interlude 5 (Both Guitars)
|----------------------------------------------------------------------------------------------------------|
|----------------------------------------------------------------------------------------------------------|
|----------------------------------------------------------------------------------------------------------|
|-12------12/10\\12------12/10\\12------13/12\\13------13/12\\13------15/14\\15------15/14\\15--12-10------|
|-10------10/-8\\10------10/-8\\10------11/10\\11------11/10\\11------13/12\\13------13/12\\13--10-8--10-8-|
|----0000-----------0000-----------0000-----------0000-----------0000-----------0000------------------10-8-|
PM   ....           ....           ....           ....           ....           ....

Interlude 6 (play under guitar solo)
|--------------------------------------------------------------------------|
|--------------------------------------------------------------------------|
|--------------------------------------------------------------------------|
|--------------------------------------------------------------12-10-------|
|--------------------------------------------------------------10--8--10-8-|
|-555--5-5-5-5555-555--777--7-7-7-777-777--888--8-8-8-8888-888--------10-8-|
PM...  . . . .... ...  ...  . . . ... ...  ...  . . . .... ...

End On
|------|
Unearth-TheOncomingStorm- Zombie Autopilot

Tabbed by: Aichi (Ray J.P.)
comments:icarus551@yahoo.com

This sounds pretty right, not 100% on a few parts
feel free to play the notes somewhere else on the fretboard

Notes:
b = bend to next note ( if isnt one then 1/2 step bend)
h = hammer on
p = pull off
* = harmonic note
PM= mute


Opening Riff - (0:00-0:20)

Guitar 1
E|-----------------------------------------------------------------------------||
B|-----------------------------------------------------------------------------||
G|--------------------------14p12p11-11----------------------------------------||
D|-12p11p9-9~---9-11-9-11-12-----------9-12p11p9-9~-11-12--11--9---------------||
A|------------12------------------------------------------12-12----------------||
E|-----------------------------------------------------------------------------||
B|-----------------------------------------------------------------------------||

E|-----------------------------------------------------------------------------||
B|-----------------------------------------------------------------------------||
G|--------------------------14p12p11-11----------------------------------------||
D|-12p11p9-9~---9-11-9-11-12-----------9-12p11p9-9~-11-12--9-------------------||
A|------------12-----------------------------------------12-10-12-9h10p9-------||
E|----------------------------------------------------------------------12-10--||
B|-----------------------------------------------------------------------------||
[ Tab from: http://www.guitartabs.cc/tabs/u/unearth/oncoming_storm_tab.html ]
E|-----------------------------------------------------------------------------||
B|-----------------------------------------------------------------------------||
G|--------------------------14p12p11-11----------------------------------------||
D|-12p11p9-9~---9-11-9-11-12-----------9-12p11p9-9~-11-12--11--9---------------||
A|------------12------------------------------------------12-12----------------||
E|-----------------------------------------------------------------------------||
B|-----------------------------------------------------------------------------||

E|-----------------------------------------------------------------------------||
B|-----------------------------------------------------------------------------||
G|--------------------------14p12p11-11----------------------------------------||
D|-12p11p9-9~---9-11-9-11-12-----------9-12p11p9-9~-11-12--9-------------------||
A|------------12-----------------------------------------12-10-12-9h10p9-------||
E|----------------------------------------------------------------------12-10--||
B|-----------------------------------------------------------------------------||

Guitar2			(2x)
E|----------------------------------------------------------------||
B|----------------------------------------------------------------||
G|----------------------------------------------------------------||
D|----------------------------------------------------------------||
A|--/-999999-55-77-7-999999-1212-11-12--999999-77-5555------------||
E|--/-777777-33-55-5-777777-1010-9--10--777777-55-3333------------||
B|----------------------------------------------------------------||

Second Riff - (0:20-0:43)

Guitar1		(2x)
E|----------------------------------------------------------------||
B|----------------------------------------------------------------||
G|----------------------------------------------------------------||
D|----5--5----5---7p5p4--4--4----2--5p4p2-------------------------||
A|---7-7--7--7-7--------5-5--5--3-3-------------------------------||
E|--7---7---8----------5---7---3----------------------------------||
B|----------------------------------------------------------------||

E|------------------------------------------------------------------------||
B|------------------------------------------------------------------------||
G|------------------------------------------------------------------------||
D|----5--5----5--5----4--4----2--2----5--5----5--5----7---7------9---9----||
A|---7-7--7--7-7--7--5-5--5--3-3--3--7-7--7--7-7--7--9-9---9---11-11--11--||
E|--7---7---8---8---5---5---3---3---7---7---8---8---10--10----12---12-----||
B|------------------------------------------------------------------------||

E|----------------------------------------------------------------||
B|----------------------------------------------------------------||
G|----------------------------------------------------------------||
D|----------------------------------------------------------------||
A|-7-9-11-9-9h11p9p9----------------------------------------------||
E|------------------h10p9-----------------------------------------||
B|----------------------------------------------------------------||


Guitar2			(2x)
E|----------------------------------------------------------------||
B|----------------------------------------------------------------||
G|----------------------------------------------------------------||
D|----------------------------------------------------------------||
A|--9-99999-111111111111-7-77777-7-77777--------------------------||
E|--7-77777-9-9-9-9-9-9--5-55555-5-55555--------------------------||
B|----------------------------------------------------------------||
PM    .....   . . . . .    .....   .....

E|----------------------------------------------------------------||
B|----------------------------------------------------------------||
G|-(unmuted)------------------------------------------------------||
D|----------------------------------------------------------------||
A|--9-99999-111111111111-7-77777-7-77777--------------------------||
E|--7-77777-9-9-9-9-9-9--5-55555-5-55555--------------------------||
B|----------------------------------------------------------------||

E|----------------------------------------------------------------||
B|----------------------------------------------------------------||
G|----------------------------------------------------------------||
D|----------------------------------------------------------------||
A|--9-99999-111111111111-12-12-12-12-12-12-13-13-13-13-13-13------||
E|--7-77777-9-9-9-9-9-9--10-10-10-10-10-10-11-11-11-11-11-11------||
B|----------------------------------------------------------------||

E|----------------------------------------------------------------||
B|----------------------------------------------------------------||
G|----------------------------------------------------------------||
D|----------------------------------------------------------------||
A|----------------------------------------------------------------||
E|-12-10-8-7h8p7h8p7----------------------------------------------||
B|----------------------------------------------------------------||


Third Riff (0:43-1:04)

Both Guitars
E|----------------------------------------------------------------||
B|----------------------------------------------------------------||
G|----------------------------------------------------------------||
D|-11-----11-9-13-11-9-119----------------------------------------||
A|-----------------------------9-7-9-109--------------------------||
E|-8------8--7-11-8--7b8r7-----7-5-7b8r7--------------------------||
B|--0-000----------------0-000----------0-------------------------||
PM    ...		   ...		.


Fourth Riff (1:04-1:34)
Both Guitars
E|--------------------------------------------------------------------||
B|--------------------------------------------------------------------||
G|--------------------------------------------------------------------||
D|--------------------------------------------------------------------||
A|----------------9-7-10-------------9-7-10-------------9-7-10-777-999||
E|-------8---10---7-5-8~------8---10-7-5-8~------8---10-7-5-8~-555-777||
B|-00000-6p0-8p0--------00000-6p0-8p0------00000-6p0-8p0--------------||
PM .....                .....              .....


Solo Riff (1:35-2:16)

Lead Guitar
E|--------------------------------------------------------------------------------------------------------||
B|--------------------------------------------------------------------------------------------------------||
G|-------------------------------------------------------------------------------------12--12-14-12-14-16/||
D|---9-11h12p11p9-9-11h12p11p9--9-11h12p11p9---14-12-11~-------12--12-14-12-14-16-14-16--16---------------||
A|--9------------9------------10-------------10-----------14-16--16---------------------------------------||
E|--------------------------------------------------------------------------------------------------------||
B|-------------------------------------------------------(^NOTE: Im just guessing what 
played here---^)||

E|-------14-15-12-14--14-----------------------------------------------------------------------------||
B|------------------15----10h12p10~~-----------------------------------------------------------------||
G|-------------------------------------------7h9p7--7h9p7--7h9p7--7h9p7--7h9p7--7h9p7--7h9p7--7h9p7--||
D|-------------------------------------12-12------h9-----h9-----h9-----h9-----h9-----h9-----h9-----h9||
A|---------------------------------------------------------------------------------------------------||
E|---------------------------------------------------------------------------------------------------||
B|---------------------------------------------------------------------------------------------------||

E|-----------------------------------------------------------------------------------||
B|-----------------------------------------------------10------------------10--------||
G|--7h9p7h9-6h8p6h8-4h6p4h6-6h7p6-6-7-9-7-6--------------12-11-9-------------12-11-9-||
D|-----------------------------------------7-9--9-11-12----------9--9-11-12----------||
A|-----------------------------------------------------------------------------------||
E|-----------------------------------------------------------------------------------||
B|-----------------------------------------------------------------------------------||

E|--------12*-12*-12*-12*--------------------------------------------------------------||
B|-----12*----------------------15p12-15p12-15p12-15p12-15p12-15p12-15p12-15p12-10/12~-||
G|--9*--------------------9br~---------------------------------------------------------||
D|-------------------------------------------------------------------------------------||
A|-------------------------------------------------------------------------------------||
E|-------------------------------------------------------------------------------------||
B|-------------------------------------------------------------------------------------||

E|---\19b----------17-14-12---12-14-14b/---13b14-17-13b14-12~-----||
B|------\16b/--------------15-------------------------------------||
G|----------------------------------------------------------------||
D|----------------------------------------------------------------||
A|----------------------------------------------------------------||
E|----------------------------------------------------------------||
B|----------------------------------------------------------------||

E|-------------------------------------------------------12--12-14-12-14-15-14-15-17-15-17-18b19-19~~-||
B|-------------------------------------------12~-12-14-15--15-----------------------------------------||
G|--------------------------9-11-11p9-----------------------------------------------------------------||
D|-9-11h12p11-12-7-11-12~-12---------12-7~-9/---------------------------------------------------------||
A|----------------------------------------------------------------------------------------------------||
E|----------------------------------------------------------------------------------------------------||
B|----------------------------------------------------------------------------------------------------||

Guitar2 (plays through the solo)
E|----------------------------------------------------------------||
B|----------------------------------------------------------------||
G|-------(repeat as needed)---------------------------------------||
D|----------------------------------------------------------------||
A|----999--777--555-777-------------------------------------------||
E|----777--555--333-555-------------------------------------------||
B|----------------------------------------------------------------||


Sixth Riff (2:17-2:25)

Guitar 1
E|-----------------------------------------------------------------------------||
B|-----------------------------------------------------------------------------||
G|--------------------------14p12p11-11----------------------------------------||
D|-12p11p9-9~---9-11-9-11-12-----------9-12p11p9-9~-11-12--11--9---------------||
A|------------12------------------------------------------12-12----------------||
E|-----------------------------------------------------------------------------||
B|-----------------------------------------------------------------------------||

E|-----------------------------------------------------------------------------||
B|-----------------------------------------------------------------------------||
G|--------------------------14p12p11-11----------------------------------------||
D|-12p11p9-9~---9-11-9-11-12-----------9-12p11p9-9~-11-12--9-------------------||
A|------------12-----------------------------------------12-10-12-9h10p9-------||
E|----------------------------------------------------------------------12-10--||
B|-----------------------------------------------------------------------------||

E|-----------------------------------------------------------------------------||
B|-----------------------------------------------------------------------------||
G|--------------------------14p12p11-11----------------------------------------||
D|-12p11p9-9~---9-11-9-11-12-----------9-12p11p9-9~-11-12--11--9---------------||
A|------------12------------------------------------------12-12----------------||
E|-----------------------------------------------------------------------------||
B|-----------------------------------------------------------------------------||

E|-----------------------------------------------------------------------------||
B|-----------------------------------------------------------------------------||
G|--------------------------14p12p11-11----------------------------------------||
D|-12p11p9-9~---9-11-9-11-12-----------9-12p11p9-9~-11-12--9-------------------||
A|------------12-----------------------------------------12-10-12-9h10p9-------||
E|----------------------------------------------------------------------12-10--||
B|-----------------------------------------------------------------------------||

Guitar2			(2x)
E|----------------------------------------------------------------||
B|----------------------------------------------------------------||
G|----------------------------------------------------------------||
D|----------------------------------------------------------------||
A|--/-999999-55-77-7-999999-1212-11-12--999999-77-5555------------||
E|--/-777777-33-55-5-777777-1010-9--10--777777-55-3333------------||
B|----------------------------------------------------------------||


Seventh Riff (2:26-2:35)

Both Guitars
E|----------------------------------------------------------------||
B|----------------------------------------------------------------||
G|----------------------------------------------------------------||
D|-11-----11-9-13-11-9-119----------------------------------------||
A|-----------------------------9-7-9-109--------------------------||
E|-8------8--7-11-8--7b8r7-----7-5-7b8r7--------------------------||
B|--0-000----------------0-000----------0-------------------------||
PM    ...		   ...		.


Eighth Riff (2:36-3:10)

Guitar 1
E|----------------------------------------------------------------||
B|----------------------------------------------------------------||
G|-----------2---2-------------2---2------------------------------||
D|--------------------0--2--0----------0--------------------------||
A|--5---4---2-2-2-2--0--2--0--2-2-2-2-0-0-------------------------||
E|-7-7-5-5-3---3----2--0--2--3---3---2----------------------------||
B|----------------------------------------------------------------||

Guitar 2 (comes in a bit later)
E|----------------------------------------------------------------||
B|----------------------------------------------------------------||
G|----------------------------------------------------------------||
D|----------------------------------------------------------------||
A|--9-7-5-9-5-5-4--9-7-5-44-2--5----------------4~----------------||
E|--7-5-3-7-5-3-2--7-5-3-22-0--3----------------2~----------------||
B|--------------------------------------(at end)------------------||

Ninth Riff (3:11-3:20)

Guitar 1
E|----------------------------------------------------------------||
B|----------------------------------------------------------------||
G|-----------2---2-------------2---2------------------------------||
D|--------------------0--2--0----------0--------------------------||
A|--5---4---2-2-2-2--0--2--0--2-2-2-2-0-0-------------------------||
E|-7-7-5-5-3---3----2--0--2--3---3---2----------------------------||
B|----------------------------------------------------------------||


Tenth Riff (3:21-4:02)

Guitar 1
E|-5----5---------5-------------------------------------||
B|---------------------------5--------------------------||
G|--6/7--6/7-6-4~--6-7-6-7-6--6/7~----------------------||
D|------------------------------------------------------||
A|------------------------------------------------------||
E|------------------------------------------------------||
B|------------------------------------------------------||

Guitar 2
E|----------------------------------------------------------------||
B|----------------------------------------------------------------||
G|----------------------------------------------------------------||
D|----------------------------------------------------------------||
A|--9-7-5-9-5-5-4--9-7-5-44-2--5----------------4~----------------||
E|--7-5-3-7-5-3-2--7-5-3-22-0--3----------------2~----------------||
B|--------------------------------------(at end)------------------||

Enjoi!

Unearth - The Oncoming Storm - Bloodlust of the Human Condition

The whole album was played on a 7-string, most of the songs can be played
in drop B (B F# B E G# C#) but this one cant, so heres the tuning:

Tuning - B A D G B E (just tune low E to B)


h = hammer on        p = pull off
/ \ = slide(up/down) * = palm mute
B = bend

I-----------------------------|
I-----------------------------|
I-----------------------------|
I-----------------------------|
I-----------------------------|
I-----------------------------|


Opening Riff -

Nothing hard here, just play palm muted open low B
with the rhythm


Second Riff
				3x
I-----------------------------------------------------|
I-----------------------------------------------------|
I-----------------------------------------------------|
I-4-2-5-2-4-2-2-5-------4-2-5-2-4-2-5-2-4-2-2-5-------|
I-2-0-3-0-2-0-0-3-------2-0-3-0-2-0-3-0-2-0-0-3-------|
I---------------00-00---------------------------00-00-|

end into 3rd riff
I-----------------------------|
I-----------------------------|
I-----------------------------|
I--4-2-5----------------------|
I--2-0-3----------------------|
I-----------------------------|


Third Riff

Guitar 1 - Note: He is not sweep picking
 	2x (A major Arpeggio shifted up a whole step)
I--------14-------------------|
I-------16-16-----------------|
I------16---16----------------|
I-----16-----16---------------|
I-14(18)------(18)14----------|
I-----------------------------|
	2x (A major Arpeggio shifted down a whole step)
I--------10-------------------|
I-------12-12-----------------|
I------12---12----------------|
I-----12-----12---------------|
I-10(14)------(14)12----------|
I-----------------------------|
	2x (A major Arpeggio)
I---------12------------------|
I--------14-14----------------|
I-------14---14---------------|
I------14-----14--------------|
I--12(16)------(16)12---------|
I-----------------------------|

Guitar2 -

I-----------------------------|
I-----------------------------|
I-----------------------------|
I-44----22--------------------|
I-22-55-00--------------------|
I----88-----------------------|


Forth Riff -

I---------------------------------------------|
I---------------------------------------------|
I---------------------------------------------|
I---------------------------------------------|
I-2--------2-0-2-2--------0-5-4-2-------------|
I---000000---------000000---------------------|

I---------------------------------------------|
I---------------------------------------------|
I---------------------------------------------|
I---------------------------------------------|
I-2-------2-0-2-2----------------------0-0-2--|
I--000000---------00000-8-10-12-000000--------|


Fifth Riff -

I----------------------------------------------|
I----------------------------------------------|
I----------------------------------------------|
I--4---4---5-----2h4-4-------------------------|
I--2---2---3-----0h2-2-------5-7-9-7-4-5-------|
I---00---00---00--------000-0-0-0-0-0----------|
(hit the open B with an upstroke)


Sixth Riff -

Nothing hard here, just play palm muted open low B
with the rhythm


Seventh Riff -

Guitar 1 - Note: He is not sweep picking
 	2x (A major Arpeggio shifted up a whole step)
I--------14-------------------|
I-------16-16-----------------|
I------16---16----------------|
I-----16-----16---------------|
I-14(18)------(18)14----------|
I-----------------------------|
	2x (A major Arpeggio shifted down a whole step)
I--------10-------------------|
I-------12-12-----------------|
I------12---12----------------|
I-----12-----12---------------|
I-10(14)------(14)12----------|
I-----------------------------|
	2x (A major Arpeggio)
I---------12------------------|
I--------14-14----------------|
I-------14---14---------------|
I------14-----14--------------|
I--12(16)------(16)12---------|
I-----------------------------|

Guitar2 -

I-----------------------------|
I-----------------------------|
I-----------------------------|
I-44----22--------------------|
I-22-55-00--------------------|
I----88-----------------------|


Eighth Riff - Note this isnt Fret Tapping

		2x

I--------------------------------------------------------|
I-7-00-5-00-7-0-8-00-7-0-5-00-7-00-5-0-7-00-8-0-7-00-5-0-|
I--------------------------------------------------------|
I--------------------------------------------------------|
I--------------------------------------------------------|
I--------------------------------------------------------|

I---------------------------------------------------------|
I-8-00-7-00-8-0-10-00-8-0-7-00-8-00-7-0-8-0-10-00-8-0-7---|
I---------------------------------------------------------|
I---------------------------------------------------------|
I---------------------------------------------------------|
I---------------------------------------------------------|

I-----------------------------------|
I-12-00-10-00-12-0-13-00-12-0-10----|
I-----------------------------------|
I-----------------------------------|
I-----------------------------------|
I-----------------------------------|

I---------------------------------|
I-10-00-8-00-10-0-12-00-10-0-8----|
I---------------------------------|
I---------------------------------|
I---------------------------------|
I---------------------------------|

I---------------------------------|
I-7-00-5-00-7-0-8-00-7-0-5--------|
I---------------------------------|
I---------------------------------|
I---------------------------------|
I---------------------------------|

I---------------------------------|
I-5-00-4-00-5-0-7-00-5-0-4--------|
I---------------------------------|
I---------------------------------|
I---------------------------------|
I---------------------------------|
Lie To Purify
Uneath
The On-Coming Storm
7-String Guitar

Key:
h - hammer on
~ - vibrato
p - pull off
b - bend
/\ - Slide

Riff 1
Guitar 1
E|-------------------------------------------------------------------------|
B|-------------------------------------------------------------------------|
G|-------------------------------------------------------------------------|
D|--------------------------------------------------------------------6h7--|
A|-----------5-------------------------------5---------------------7h8-----|
E|--5h7-7-5h7-7p5-5h7--888-7-888-7--5h7-7-5h7-7p5-5h7--888-7-8-7-8---------|
B|-0-----0-----------6-666-5-666-5-0-----0-----------6-666-5-6-5-6---------|

E|----------------------------------------------------------------|
B|----------------------------------------------------------------|
G|----------------------------------------------------------------|
D|----------------------------------------------------------------|
A|-----------5--------------------5h7p5---------------------------|
E|--5h7-7-5h7-7p5-5h7------5-7-5-7-----7-5-----5--8-7-5-----------|
B|-0-----0-----------00-5-7---------------0-5h7-7-6-5-3-----------|

Guitar 2
E|-------------------------------------------------------------------------|
B|-------------------------------------------------------------------------|
G|-----------7-------------------------------7-----------------------------|
D|--7h9-9-5h7-----------------------7h9-9-7h9-------------------------6h7--|
A|-------------------------------------------5---------------------7h8-----|
E|--5h7-7-5h7-7p5-5h7--888-7-888-7--5h7-7-5h7-7p5-5h7--888-7-8-7-8---------|
B|-0-----0-----------6-666-5-666-5-0-----0-----------6-666-5-6-5-6---------|

E|----------------------------------------------------------------|
B|----------------------------------------------------------------|
G|-----------7--------------------7h9p7---------------------------|
D|----9-9-----------9------7-9-7-9-----9-5-----7------------------|
A|-----------5----------7-9-----------------7h9-9-----------------|
E|--5h7-7-----------------------------------------8-7-5-----------|
B|-0-----0-----------00-------------------0-------6-5-3-----------|

Riff 2
E|-------------------------------------------------------------------------|
B|-------------------------------------------------------------------------|
G|-------------------------------------------------------------------------|
D|-------------------------------------------------------------9-7-5-------|
A|------5----------7-7-------5--------5-----------5---------5-5-----9-7-5--|
E|-7--9--9-5-7----9-9---7---9-9-5--7-9-9-7-5-7---9-9-5-7---9-9-------------|
B|--00--------00---------00-------7-----------00--------00-----------------|

Riff 3
Guitar 1
E|----------------------------------------------------------------|
B|----------------------------------------------------------------|
G|----------------------------------------------------------------|
D|----------------------------------------------------------------|
A|----9999999-777777-555555-7777777-------------------------------|
E|----7777777-555555-333333-5555555-------------------------------|
B|----------------------------------------------------------------|


Guitar 2
E|----------------------------------------------------------------|
B|----------------------------------------------------------------|
G|----------------------------------------------------------------|
D|-5--------------------------------------------------------------|
A|--9-7-5----7-5----------------5h7h9-5---------------------------|
E|-------9-5----9-7-5-5-7-8-7-55----------------------------------|
B|-------------------8--------------------------------------------|

Riff 4
E|----------------------------------------------------------------|
B|----------------------------------------------------------------|
G|------------------------------------------6-6-7~-6--------------|
D|--7-5-7-5------------5---------7-5-7-9-7-9-9-------9h11p9-9-7-5-|
A|-5-9-----9-7--5-7-5~--9-7-5-7-5-9----------------------------9--|
E|-------------5-----------9--------------------------------------|
B|----------------------------------------------------------------|

Riff 5
E|-------------------------------------------------------------------------|
B|-------------------------------------------------------------------------|
G|-------------------------------------------------------------------------|
D|-------------------------------------------------------------9-7-5-------|
A|------5----------7-7-------5--------5-----------5---------5-5-----9-7-5--|
E|-7--9--9-5-7----9-9---7---9-9-5--7-9-9-7-5-7---9-9-5-7---9-9-------------|
B|--00--------00---------00-------7-----------00--------00-----------------|


*Riff 6
E|----------------------------------------------------------------|
B|----------------------------------------------------------------|
G|----------------------------------------------------------------|
D|----------------------------------------------------------------|
A|----------------------------------------------------------------|
E|---------------------9-10-9---------------------9-10-9----------|
B|-000-00000-000-00000-7-8--7-000-00000-000-00000-7-8--7----------|

E|------------------------------------------------------------|-----|
B|------------------------------------------------------------|-----|
G|------------------------------------------------------------|-----|
D|------------------------------------------------------------|-----|
A|------------------------------------------------------------|-----|
E|------------------------------------------------------------|2--3-|
B|-000-00000-000-00000-7h0-7h8 7-000-00000-000-00000-7h8--7h8-|0--1-|


Riff 7
Guitar 1
E|----------------------------------------|
B|----------------------------------------|
G|----------------------------------------|
D|----------------------------------------|
A|-7-9-10-5-10-7--------------------------|
E|-5-7-8--3-8--5--------------------------|
B|----------------------------------------|

Guitar 2
E|----------------------------------------------------------------------|
B|----------------------------8-6-5-------------------------------------|
G|------------9-7-5---0-4-5-0------5--------9-7-5--------7-10-9-7-------|
D|-x-7-9-10-7-------9---------------x-5-7-9------9-7-5-9----------10-9--|
A|----------------------------------------------------------------------|
E|----------------------------------------------------------------------|
B|----------------------------------------------------------------------|

Riff 8
Guitar 1
E|-------------------------------------------------------------------------|
B|-------------------------------------------------------------------------|
G|-------------------------------------------------------------------------|
D|--------------------------------------------------------------------6h7--|
A|-----------5-------------------------------5---------------------7h8-----|
E|--5h7-7-5h7-7p5-5h7--888-7-888-7--5h7-7-5h7-7p5-5h7--888-7-8-7-8---------|
B|-0-----0-----------6-666-5-666-5-0-----0-----------6-666-5-6-5-6---------|

E|----------------------------------------------------------------|
B|----------------------------------------------------------------|
G|----------------------------------------------------------------|
D|----------------------------------------------------------------|
A|-----------5--------------------5h7p5---------------------------|
E|--5h7-7-5h7-7p5-5h7------5-7-5-7-----7-5-----5--8-7-5-----------|
B|-0-----0-----------00-5-7---------------0-5h7-7-6-5-3-----------|

Guitar 2
E|-------------------------------------------------------------------------|
B|-------------------------------------------------------------------------|
G|-----------7-------------------------------7-----------------------------|
D|--7h9-9-5h7-----------------------7h9-9-7h9-------------------------6h7--|
A|-------------------------------------------5---------------------7h8-----|
E|--5h7-7-5h7-7p5-5h7--888-7-888-7--5h7-7-5h7-7p5-5h7--888-7-8-7-8---------|
B|-0-----0-----------6-666-5-666-5-0-----0-----------6-666-5-6-5-6---------|

E|----------------------------------------------------------------|
B|----------------------------------------------------------------|
G|-----------7--------------------7h9p7---------------------------|
D|----9-9-----------9------7-9-7-9-----9-5-----7------------------|
A|-----------5----------7-9-----------------7h9-9-----------------|
E|--5h7-7-----------------------------------------8-7-5-----------|
B|-0-----0-----------00-------------------0-------6-5-3-----------|
Band: Unearth
Song: Endless
Album: The Oncoming Storm
Tuning: B F# B E G# C#

Guitar 1, left pan
Guitar 2, right pan
Guitar 3, left and right pan
Guitar 4, center pan

Intro/Verse 1
Guitar 1                                            x4
|| ------------------------------------------------ ||
|| ------------------------------------------------ ||
||.--------------------------------------------2---.||
||.------------------3332200--------------------3--.||
|| ------555---553355------------555---11551133---- ||
|| --0000---000--------------0000---000------------ ||
PM   ****   ***              ****   ***

Guitar 2                                            x4
|| ------------------------------------------------ ||
|| ------------------------------------------------ ||
||.------------------------------------------------.||
||.------------------3332200-------------------32--.||
|| ------555---553355------------555---11551133---- ||
|| --0000---000--------------0000---000------------ ||
PM   ****   ***              ****   ***

Verse 2
Guitar 1
  ____________________________________________
 |1,2
|| ------------------------------------------ ||
|| ------------------------------------------ ||
||.------------------------------------------.||
||.------------------------------------------.||
|| --85858585-73737373-51515151-7373-7h8h10-- ||
|| ------------------------------------------ ||
PM   ******** ******** ******** ****

Guitar 2
  ____________________________________________
 |1,2
|| ------------------------------------------ ||
|| ------------------------------------------ ||
||.------------------------------------------.||
||.--73737373-52525252-30303030-5252-5h7h8---.||
|| ------------------------------------------ ||
|| ------------------------------------------ ||
PM   ******** ******** ******** ****

Guitar 1
 ____________________________________________________
|3
|----------------------------------------------------|
|----------------------------------------------------|
|----------------------------------------------------|
|----------------------------------------------------|
|--8-555-8-555-7-333-7-333-5-111-5-111-7-333-7h8h10--|
|----------------------------------------------------|
PM   ***   ***   ***   ***   ***   ***   ***

Guitar 2
 ____________________________________________________
|3
|----------------------------------------------------|
|----------------------------------------------------|
|----------------------------------------------------|
|--7-----7-----5-----5-----3-----3-----5-----5h7h8---|
|----888---888---777---777---555---555---777---------|
|----------------------------------------------------|
PM   ***   ***   ***   ***   ***   ***   ***

Fill 1                  Fill 2
Guitar 1
 ______________________
|4                                                     x4
|----------------------|| -----------------------NH--- ||
|----------------------|| -----------------------(5)-- ||(4th time only)
|---------2-------5-7--||.----------------------------.||
|---235532-533532-5-7--||.--00-00-00-00--00-00-00-00--.||
|--5--------------3-5--|| --00-00-00-00--00-00-00-00-- ||
|----------------------|| --00-00-00-00--00-00-00-00-- ||
PM                          ** ** ** **  ** ** ** **

Guitar 2
 ______________________
|4                                                     x4
|----------------------|| -----------------------NH--- ||
|----------------------|| -----------------------(5)-- ||(4th time only)
|-----------------5-7--||.----------------------------.||
|--0--------------5-7--||.--00-00-00-00--00-00-00-00--.||
|--0--------------3-5--|| --00-00-00-00--00-00-00-00-- ||
|--0-------------------|| --00-00-00-00--00-00-00-00-- ||
PM                          ** ** ** **  ** ** ** **

Guitar 3, left pan					       x4
|----------------------|| -----------------------NH--- ||
|----------------------|| --8~~~~~~~~~~~~~~~~~~~~(5)~~ ||(4th time only)
|----------------------||.--10b~~~~~~~~~~~~~~~~~~~~~~~.||
|----------------------||.----------------------------.||
|----------------------|| ---------------------------- ||
|----------------------|| ---------------------------- ||

Guitar 3, right pan					       x4
|----------------------|| ---------------------------- ||
|----------------------|| -----8~~~~~~~~~~~~~~~~~(5)~~ ||(4th time only)
|----------------------||.-----10b~~~~~~~~~~~~~~~~~~~~.||
|----------------------||.----------------------------.||
|----------------------|| ---------------------------- ||
|----------------------|| ---------------------------- ||

Breakdown
Guitars 1 and 2                 x4                              x4
|| ---------------------------- || ---------------------------- ||
|| ---------------------------- || ---------------------------- ||
||.----------------------------.||.----------------------------.||
||.--00-00-00-00--00-00-00-00--.||.--00-00-00-00--00-00-00-00--.||
|| --00-00-00-00--00-00-00-00-- || --00-00-00-00--00-00-00-00-- ||
|| --00-00-00-00--00-00-00-00-- || --00-00-00-00--00-00-00-00-- ||
PM   ** ** ** **  ** ** ** **        ** ** ** **  ** ** ** **

Guitar 4                                                        x4
|-------------------------------|| ---------------------------- ||
|-------------------------------|| ---------------------------- ||
|-------------------------------||.----------------------------.||
|--------------------------12\--||.--------7----3--7--10-9--5--.||
|--------------------------12\--|| --------5----1--5--8--7--3-- ||
|--------------------------12\--|| ---------------------------- ||

Interlude 1
Guitar 1
|| ------------------------------------------------------------ ||
|| ------------------------------------------------------------ ||
||.------------------------------------------------------------.||
||.--7---5-7-8-7-5--7---5-7-8-7-5--7---5-7-8-7-5-3----5--------.||
|| --5---3-5-6-5-3--5---3-5-6-5-3--5---3-5-6-5-3-1----3-------- ||
|| ------------------------------------------------------(00)-- ||(1st time only)
PM                                                              **

Guitar 2
|| ------------------------------------------------------------ ||
|| ------------------------------------------------------------ ||
||.------------------------------------------------------------.||
||.--7---5-7-----5--12----14-------7---5-7-----5-3-14-12-------.||
|| --5---3-5-----3--10----12-------5---3-5-----3-1-12-10------- ||
|| ----------------------------00------------------------(00)-- ||(1st time only)
PM                             **                         **

Interlude 2
Guitar 1
|| ------|--------------------------------------------------|
|| ------|--8-8-8-8xx10-10-10-10xx11-11-11-11xx13-11-10/11--|
||.------|--x-x-x-x--x--x--x--x---x--x--x--x---x--x--x--x---|
||.------|--5-5-5-5xx7--7--7--7-xx8--8--8--8-xx10-8--7-/8---|
|| ------|--------------------------------------------------|
|| --x\--|--------------------------------------------------|

Guitar 2
|| ------|--------------------------------------------------|
|| ------|--8-8-8-8xx10-10-10-10xx15-15-15-15xx13-13-13/15--|
||.------|--x-x-x-x--x--x--x--x---x--x--x--x---x--x--x--x---|
||.------|--5-5-5-5xx7--7--7--7-xx12-12-12-12xx10-10-10/12--|
|| ------|--------------------------------------------------|
|| --x\--|--------------------------------------------------|

Guitar 1
|----------------------------------------------------- ||
|--8-8-8-8xx10-10-10-10xx11-11-11-11xx13-11-10/11\10-- ||
|--x-x-x-x--x--x--x--x---x--x--x--x---x--x--x--x--x---.||
|--5-5-5-5xx7--7--7--7-xx8--8--8--8-xx10-8--7-/8-\7---.||
|----------------------------------------------------- ||
|----------------------------------------------------- ||

Guitar 2
|----------------------------------------------------- ||
|--8-8-8-8xx10-10-10-10xx6--6--6--6-xx10/11-11-11-11-- ||
|--x-x-x-x--x--x--x--x---x--x--x--x---x--x--x--x--x---.||
|--5-5-5-5xx7--7--7--7-xx3--3--3--3-xx7-/8--8--8--8---.||
|----------------------------------------------------- ||
|----------------------------------------------------- ||

Interlude 3
Guitar 1
|| ------------------------------------------------- ||
|| ------------------------------------------------- ||
||.--12---10---8---10-15-14--12---10---8---10-------.||
||.--x----x----x---x--x--x---x----x----x---x--3333--.||
|| --10---8----6---8--13-12--10---8----6---8--3333-- ||
|| -------------------------------------------3333-- ||
PM                                            ****

Guitar 2
|| ------------------------------------------------- ||
|| ------------------------------------------------- ||
||.-------------------------------------------------.||
||.--5----3----1---3---------5----3----1---3--3333--.||
|| --5----3----1---3---------5----3----1---3--3333-- ||
|| --5----3----1---3---------5----3----1---3--3333-- ||
PM                                            ****

Interlude 4
Guitar 1
|---------------------------------------------------------------------------|
|---------------------------------------------------------------------------|
|---------------------------------------------------------------------------|
|---------------------------------------------------------------------------|
|---------------------------------------------------------------------------|
|--00300656-00300656-00300656-00300656-00300656-00300656-00300656-00300656--|

Guitar 2
|---------------------------------------------------------------------------|
|---------------------------------------------------------------------------|
|---------------------------------------------------------------------------|
|--0~~~~~~~~~~~~~~~~~~~~~~~~~~~~~~~~~~~~~~~~~~~~~~~~~~~~~-------------------|
|--0~~~~~~~~~~~~~~~~~~~~~~~~~~~~~~~~~~~~~~~~~~~~~~~~~~~~~-------------------|
|--0~~~~~~~~~~~~~~~~~~~~~~~~~~~~~~~~~~~~~~~~~~~~~~~~~~~~~x\\\\\\\\\\\\\\\\--|

Guitars 1 and 2
  __________________________________________
 |1,2,3                                     |
|| --------------------------------------- ||
|| ----------------------------------555-- ||
||.---------------------------------------.||
||.---------------------------------------.||
|| --------------------------------------- ||
|| --00300656-00300656-00300656-00000----- ||
PM                              *****

Guitars 1 and 2
 _______________________________________________
|4                                              |
|-----------------------------------------------|
|-----------------------------------------------|
|-----------------------------------------------|
|-----------------------------------------------|
|-----------------------------------------------|
|--00300656-00300656-00300656-6543543243213210--|
PM                            ****************

Ending 1
Guitars 1 and 2
|---------------------7---|
|-------------------(NH)--|
|-------------------------|
|--00-00----00-00---------|
|--00-00----00-00---------|
|--00-00----00-00---------|
PM ** **    ** **

Ending 2
Guitars 1 and 2                 x4
|| ---------------------------- ||
|| ---------------------------- ||
||.----------------------------.||
||.--00-00-00-00--00-00-00-00--.||
|| --00-00-00-00--00-00-00-00-- ||
|| --00-00-00-00--00-00-00-00-- ||
PM   ** ** ** **  ** ** ** **

Guitar 4                 4th time
|-------------------------------|
|-------------------------------|
|-------------------------------|
|--------------------------12\--|
|--------------------------12\--|
|--------------------------12\--|

Guitars 1 and 2
|| -------------------------------------------------------------------|
|| -------------------------------------------------------------------|
||.-------------------------------------------------------------------|
||.--0--0----0--0----0--0----0--0----0--0----0--0----0--0----0--0-----|
|| --0--0----0--0----0--0----0--0----0--0----0--0----0--0----0--0-----|
|| --0--0----0--0----0--0----0--0----0--0----0--0----0--0----0--0-----|
PM   *  *    *  *    *  *    *  *    *  *    *  *    *  *    *  *

Guitar 4
|| --t---ph--t---ph--t---ph--t---ph--t---ph--t---ph--t---ph--t---ph---|
|| --1511811-1511811-1511811-1511811-1611811-1611811-1511811-1511811--|
||.-------------------------------------------------------------------|
||.-------------------------------------------------------------------|
|| -------------------------------------------------------------------|
|| -------------------------------------------------------------------|

Guitars 1 and 2
|------------------------------------------------------------------- ||
|------------------------------------------------------------------- ||
|-------------------------------------------------------------------.||
|--0--0----0--0----0--0----0--0----0--0----0--0----0--0----0--0-----.||
|--0--0----0--0----0--0----0--0----0--0----0--0----0--0----0--0----- ||
|--0--0----0--0----0--0----0--0----0--0----0--0----0--0----0--0----- ||
PM *  *    *  *    *  *    *  *    *  *    *  *    *  *    *  *

Guitar 4
|--t---ph--t---ph--t---ph--t---ph--t---ph--t---ph--t---ph--t---ph--- ||
|--1510710-1510710-1510710-1510710-1610710-1610710-1510710-1510710-- ||
|-------------------------------------------------------------------.||
|-------------------------------------------------------------------.||
|------------------------------------------------------------------- ||
|------------------------------------------------------------------- ||

Guitars 1 and 2
|---------||
|---------||
|---------||
|--00-00--||
|--00-00--||
|--00-00--||
PM ** **
Comments