Unearth - My Heart Bleeds No Longer Chords & Tabs

 

My Heart Bleeds No Longer Chords & Tabs

Unearth Chords & Tabs

Version: 1 Type: Bass Tab

My Heart Bleeds No Longer Bass Tab

Band- Unearth
Song- My Heart Bleeds No Longer

G||------------------|------------------|------------------|------------------|
D||------------------|------------------|------------------|------------------|
A||------------------|------------------|------------------|------------------|
E||------------------|------------------|------------------|------------------|
B||------------------|------------------|------------------|------------------|


                                                         
------------------|------------------|------------------|
------------------|------------------|------------------|
------------------|------------------|------------------|
------------------|------------------|------------------|
------------------|------------------|------------------|


                                                                               
------------------------|--------------------------|--------------------------|
------------------------|--------------------------|--------------------------|
------------------------|--------------------------|--------------------------|
-------------1---0------|--------------------------|--------------------------|
--3---2---3----------2--|--0-0--0-0------0--0-0--0-|--0-0--0-0------0--0-0--0-|


                                                                               
--------------------------|------------------------|--------------------------|
--------------------------|------------------------|--------------------------|
--------------------------|------------------------|--------------------------|
--------------------------|-------------1---0------|--------------------------|
--0-0--0-0------0--0-0--0-|--3---2---3----------2--|--0-0--0-0------0--0-0--0-|


                                                                               
--------------------------|--------------------------|------------------------|
--------------------------|--------------------------|------------------------|
--------------------------|--------------------------|------------------------|
--------------------------|--------------------------|-------------1---0------|
--0-0--0-0------0--0-0--0-|--0-0--0-0------0--0-0--0-|--3---2---3----------2--|


                                                      
--------------------------|--------------------------|
--------------------------|--------------------------|
--------------------------|--------------------------|
--------------------------|--------------------------|
--0-0--0-0------0--0-0--0-|--0-0--0-0------0--0-0--0-|


                                                                               
--------------------------|------------------------|--------------------------|
--------------------------|------------------------|--------------------------|
--------------------------|------------------------|--------------------------|
--------------------------|-------------1---0------|--------------------------|
--0-0--0-0------0--0-0--0-|--3---2---3----------2--|--0-0--0-0------0--0-0--0-|


                                                                               
--------------------------|--------------------------|------------------------|
--------------------------|--------------------------|------------------------|
--------------------------|--------------------------|------------------------|
--------------------------|--------------------------|-------------1---0------|
--0-0--0-0------0--0-0--0-|--0-0--0-0------0--0-0--0-|--3---2---3----------2--|


                                                                      
----------------------------------|----------------------------------|
--0-0-0-0-0-0-0-0-3-3-2-2-3-3-3-3-|--0-0-0-0-0-0-0-0-3-3-2-2-3-3-3-3-|
----------------------------------|----------------------------------|
----------------------------------|----------------------------------|
----------------------------------|----------------------------------|


                                                                      
----------------------------------|----------------------------------|
------------------3-3-2-2---------|------------------3-3-2-2-0-0-3-3-|
--------------------------3-3-3-3-|--0-0-0-0-0-0-0-0-----------------|
--1-1-1-1-1-1-1-1-----------------|----------------------------------|
----------------------------------|----------------------------------|


                                                                      
----------------------------------|----------------------------------|
--0-0-0-0-0-0-0-0-3-3-2-2-3-3-3-3-|--0-0-0-0-0-0-0-0-3-3-2-2-3-3-3-3-|
----------------------------------|----------------------------------|
----------------------------------|----------------------------------|
----------------------------------|----------------------------------|


                                                                      
----------------------------------|----------------------------------|
------------------3-3-2-2---------|------------------3-3-2-2-0-0-3-3-|
--------------------------3-3-3-3-|--0-0-0-0-0-0-0-0-----------------|
--1-1-1-1-1-1-1-1-----------------|----------------------------------|
----------------------------------|----------------------------------|


                                                                   
----------------------|----------------------|--0-----------------|
--0--------3--2--3----|--0--------3--2--3----|-----------3--------|
----------------------|----------------------|--------------------|
----------------------|----------------------|--------------------|
----------------------|----------------------|--------------------|


                                                                       
------------------------|----------------------|----------------------|
--2----3----2--3--2-----|--0--------3--2--3----|--0--------3--2--3----|
---------------------3--|----------------------|----------------------|
------------------------|----------------------|----------------------|
------------------------|----------------------|----------------------|


                                                                     
--0-----------------|------------------------|----------------------|
-----------3--------|--2----3----2--3--2-----|--0--------3--2--3----|
--------------------|---------------------3--|----------------------|
--------------------|------------------------|----------------------|
--------------------|------------------------|----------------------|


                                                                     
----------------------|--0-----------------|------------------------|
--0--------3--2--3----|-----------3--------|--2----3----2--3--2-----|
----------------------|--------------------|---------------------3--|
----------------------|--------------------|------------------------|
----------------------|--------------------|------------------------|


                                                                   
----------------------|----------------------|--0-----------------|
--0--------3--2--3----|--0--------3--2--3----|-----------3--------|
----------------------|----------------------|--------------------|
----------------------|----------------------|--------------------|
----------------------|----------------------|--------------------|


                                                        
------------------------|------------------------------|
--2----3----2--3--2-----|------------------------------|
---------------------3--|------------------------------|
------------------------|------------------------------|
------------------------|--0-0--0-0--0-0--0-0--0-0-0-0-|


                                                              
------------------------------|------------------------------|
------------------------------|------------------------------|
------------------------------|------------------------------|
------------------------------|------------------------------|
--0-0--0-0--0-0--0-0--0-0-0-0-|--0-0--0-0--0-0--0-0--0-0-0-0-|


                                                                               
------------------------|--------------------------|--------------------------|
------------------------|--------------------------|--------------------------|
------------------------|--------------------------|--------------------------|
------------------------|--------------------------|--------------------------|
--0-0--0-0--0-0---------|--0-0--0-0------0--0-0--0-|--0-0--0-0------0--0-0--0-|


                                                          
--------------------------|------------------------------|
--------------------------|------------------------------|
--------------------------|------------------------------|
--------------------------|------------------------------|
--0-0--0-0------0--0-0--0-|--0-0--0-0--0-0-0-0--0-0--0-0-|


                                                      
--------------------------|--------------------------|
--------------------------|--------------------------|
--------------------------|--------------------------|
--------------------------|--------------------------|
--0-0--0-0------0--0-0--0-|--0-0--0-0------0--0-0--0-|

[ Tab from: http://www.guitartabs.cc/tabs/u/unearth/my_heart_bleeds_no_longer_btab.html ]
                                                          
--------------------------|------------------------------|
--------------------------|------------------------------|
--------------------------|------------------------------|
--------------------------|------------------------------|
--0-0--0-0------0--0-0--0-|--0-0--0-0--0-0-0-0--0-0--0-0-|


                                                      
--------------------------|--------------------------|
--------------------------|--------------------------|
--------------------------|--------------------------|
--------------------------|--------------------------|
--0-0--0-0------0--0-0--0-|--0-0--0-0------0--0-0--0-|


                                                          
--------------------------|------------------------------|
--------------------------|------------------------------|
--------------------------|------------------------------|
--------------------------|------------------------------|
--0-0--0-0------0--0-0--0-|--0-0--0-0--0-0-0-0--0-0--0-0-|


                                                      
--------------------------|--------------------------|
--------------------------|--------------------------|
--------------------------|--------------------------|
--------------------------|--------------------------|
--0-0--0-0------0--0-0--0-|--0-0--0-0------0--0-0--0-|


                                                          
--------------------------|------------------------------|
--------------------------|------------------------------|
--------------------------|------------------------------|
--------------------------|------------------------------|
--0-0--0-0------0--0-0--0-|--0-0--0-0--0-0-0-0--0-0--0-0-|


                                                                   
----------------------|----------------------|--0-----------------|
--0--------3--2--3----|--0--------3--2--3----|-----------3--------|
----------------------|----------------------|--------------------|
----------------------|----------------------|--------------------|
----------------------|----------------------|--------------------|


                                                                       
------------------------|----------------------|----------------------|
--2----3----2--3--2-----|--0--------3--2--3----|--0--------3--2--3----|
---------------------3--|----------------------|----------------------|
------------------------|----------------------|----------------------|
------------------------|----------------------|----------------------|


                                                                     
--0-----------------|------------------------|----------------------|
-----------3--------|--2----3----2--3--2-----|--0--------3--2--3----|
--------------------|---------------------3--|----------------------|
--------------------|------------------------|----------------------|
--------------------|------------------------|----------------------|


                                                                     
----------------------|--0-----------------|------------------------|
--0--------3--2--3----|-----------3--------|--2----3----2--3--2-----|
----------------------|--------------------|---------------------3--|
----------------------|--------------------|------------------------|
----------------------|--------------------|------------------------|


                                                                   
----------------------|----------------------|--0-----------------|
--0--------3--2--3----|--0--------3--2--3----|-----------3--------|
----------------------|----------------------|--------------------|
----------------------|----------------------|--------------------|
----------------------|----------------------|--------------------|


                                                                        
------------------------|-------------------|--------------------------|
--2----3----2--3--2-----|-------------------|--------------------------|
---------------------3--|-------------------|--------------------------|
------------------------|-------------------|--------------------------|
------------------------|--3/---------------|--3--3--3--3--3--3--3--3--|


                                                       
-------------------|----------------------------------|
-------------------|----------------------------------|
-------------------|----------------------------------|
-------------------|----------------------------------|
--3/---------------|--3-3-3-3-3-3-3-3-3-3-3-3-3-3-3-3-|


                                                      
--------------------------|--------------------------|
--------------------------|--------------------------|
--------------------------|--------------------------|
--------------------------|--------------------------|
--3--3--3--3--3--3--3--3--|--3--3--3--3--3--3--3--3--|


                                                                    
--------------------------|--------------------|-------------------|
--------------------------|--------------------|-------------------|
--------------------------|--5--------5--------|--5----------------|
--------------------------|--------------------|-------------------|
--3--3--3--3--3--3--3--3--|--------------------|-------------------|


                                                             
-------------------|-------------------|--------------------|
-------------------|-------------------|--------------------|
----------3--------|--5----------------|--1--------3--------|
-------------------|-------------------|--------------------|
-------------------|-------------------|--------------------|


                                                            
-------------------|-------------------|-------------------|
-------------------|-------------------|-------------------|
--5----------------|----------3--------|--5----------------|
-------------------|-------------------|-------------------|
-------------------|-------------------|-------------------|


                                                             
--------------------|-------------------|-------------------|
--------------------|-------------------|-------------------|
--1--------3--------|--5----------------|----------3--------|
--------------------|-------------------|-------------------|
--------------------|-------------------|-------------------|


                                                             
-------------------|--------------------|-------------------|
-------------------|--------------------|-------------------|
--5----------------|--1--------3--------|--5----------------|
-------------------|--------------------|-------------------|
-------------------|--------------------|-------------------|


                                                             
-------------------|-------------------|--------------------|
-------------------|-------------------|--------------------|
----------3--------|--5----------------|--1--------3--------|
-------------------|-------------------|--------------------|
-------------------|-------------------|--------------------|


                                                                    
-------------------|-------------------------|---------------------|
-------------------|-------------------------|---------------------|
--5----------------|-------------------------|---------------------|
-------------------|-------------------------|---------6-----------|
-------------------|----------3----1----3----|--4-------------6----|


                                                                      
-----------------------|-------------------|-------------------------|
-----------------------|-------------------|-------------------------|
----------8--10--8--6--|-------------------|-------------------------|
-----------------------|-------------------|-------------------------|
-----------------------|--3----------------|----------3----1----3----|


                                                                 
--------------------|-----------------------|-------------------|
--------------------|-----------------------|-------------------|
--------------------|----------8--10--8--6--|-------------------|
--------------------|-----------------------|-------------------|
--4------------6----|-----------------------|--3----------------|


                                                                        
-------------------------|---------------------|-----------------------|
-------------------------|---------------------|-----------------------|
-------------------------|---------------------|----------8--10--8--6--|
-------------------------|---------6-----------|-----------------------|
----------3----1----3----|--4-------------6----|-----------------------|


                                                                   
-------------------|-------------------------|--------------------|
-------------------|-------------------------|--------------------|
-------------------|-------------------------|--------------------|
-------------------|-------------------------|--------------------|
--3----------------|----------3----1----3----|--4------------6----|


                                                        
-----------------------|-------------------|----------||
-----------------------|-------------------|----------||
----------8--10--8--6--|-------------------|----------||
-----------------------|-------------------|----------||
-----------------------|--3----------------|----------||