Unearth - Endless Chords & Tabs

 

Endless Chords & Tabs

Unearth Chords & Tabs

Version: 1 Type: Tab 0 ratings
1 star 2 stars 3 stars 4 stars 5 stars
comments

Endless Tab

Standard Tuning

|------------------------------|
|------------------------------|
|------------------------------| cont.
|----7-------------------------|
|-0007-000---------------------|
|-0005-000----5555--8888777755-|
|-000--0007777----77-----------|
  ...  ...

|------------------------------|
|------------------------------|
|------------------------------| x4
|----7-------------------------|
|-0007-000----0000--------22---|
|-0005-0001111----11113333--33-|
|-000--000---------------------|
  ...  ...

|------------------------------------|
|------------------------------------|
|------------------------------------| x2
|------------------------------------|
|------------------------------------|
|-8080808070707070808080807070781087-|
|-----------------8-8-8-8-7-7--------|

1st guitar:
|----------------------------------|
|----------------------------------|
|----------------------------------| 
|----------------------------------|
|----------------------------------|
|-8888888877777777-----------------|
|-----------------8888888877777777-|
  ................................

2nd guitar:
|------------------------------------------|
|------------------------------------------|
|------------------------------------------|
|------------------------------------------|
|-33<3>33<3>22<2>22<2>--<3>--<3>--<2>--<2>-|
|---------------------11---11---00---00----|
|------------------------------------------|
  ..   ..   ..   ..   ..   ..   ..   ..

1st guitar:
|--------------------------|
|--------------------------|
|--------------------------|
|--------------------------|
|--------------------------|
|-8888888877777777---------|
|-----------------88888888-|
  ........................

2nd guitar:
|-----------------------------|
|-----------------------------|
|-----------------------------|
|-----------------------------|
|-33<3>33<3>22<2>22<2>--<3>---|
|---------------------11---11-|
|-----------------------------|
  ..   ..   ..   ..   ..   ..

2nd guitar:
|-------------------|
|-------------------|
|-------------------|
|---------754-------|
|---235320---7545-8-|
|-35------------5-8-|
|---------------5-8-|

1st guitar:
|-----|
|-----|
|-----| 
|-----|
|-5-8-|
|-5-8-|
|-5-8-|

|-------|
|-------|
|-2b-2b-| x4
|-------|
|-------|
|-------|
|-------|

2ndt guitar:
|--------------------------|
|--------------------------|
|--------------------------| x4
|--------------------------|
|-0-0000-0-0000--00-0-0000-|
|-0-0000-0-0000--00-0-0000-|
|-0-0000-0-0000--00-0-0000-|
  . .... . ....  .. . ....

Breakdown/Both guitars:
|--------------------------|
|--------------------------|
|--------------------------| x4
|--------------------------|
|-0-0000-0-0000--00-0-0000-|
|-0-0000-0-0000--00-0-0000-|
|-0-0000-0-0000--00-0-0000-|
  . .... . ....  .. . ....

1st guitar:
|--------------------------|
|--------------------------|
|--------------------------| x4
|--------------------------|
|-0-0000-0-0000--00-0-0000-|
|-0-0000-0-0000--00-0-0000-|
|-0-0000-0-0000--00-0-0000-|
  . .... . ....  .. . ....

2nd guitar:
|---------------|
|---------------|
|---------------| x4
|---------------|
|-------------7-|
|-5--3--5-6-8---|
|---------------|

Both guitars:
|---------------------------------------------|
|---------------------------------------------|
|---------------------------------------------| cont.
|-7--5-7-8-7-5-7--5-7-8-7-5-7--5-7-8-7-5-3--5-|
|-x--x-x-x-x-x-x--x-x-x-x-x-x--x-x-x-x-x-x--x-|
|-5--3-5-6-5-3-5--3-5-6-5-3-5--3-5-6-5-3-1--3-|
|---------------------------------------------|

|-----------------------------------------------|
|-----------------------------------------------|
|-----------------------------------------------| cont.
|-7--5-7-8-7-5-7--5-7-8-7-5-7--5-7-8-7-5-3----5-|
|-x--x-x-x-x-x-x--x-x-x-x-x-x--x-x-x-x-x-x----x-|
|-5--3-5-6-5-3-5--3-5-6-5-3-5--3-5-6-5-3-1----3-|
|-----------------------------------------------|

|---------------------------------------------|
|---------------------------------------------|
|---------------------------------------------| cont.
|-12121212-x-14141414-x-15151515-x-17171717-x-|
|--x-x-x-x-x--x-x-x-x-x--x-x-x-x-x--x-x-x-x-x-|
|-10101010-x-12121212-x-13131313-x-15151515-x-|
|---------------------------------------------|
[ Tab from: http://www.guitartabs.cc/tabs/u/unearth/endless_tab.html ]
|---------------------------------------------|
|---------------------------------------------|
|---------------------------------------------| x2
|-12121212-x-14141414-x-10101010-x-15151515-x-|
|--x-x-x-x-x--x-x-x-x-x--x-x-x-x-x--x-x-x-x-x-|
|-10101010-x-12121212-x--8-8-8-8-x-13131212-x-|
|---------------------------------------------|

|--------------------------------------------------|
|--------------------------------------------------|
|--------------------------------------------------| cont.
|-121212121212141414141414151515151515171717171717-|
|--x-x-x-x-x-x-x-x-x-x-x-x-x-x-x-x-x-x-x-x-x-x-x-x-|
|-101010101010121212121212131313131313151515151515-|
|--------------------------------------------------|

|--------------------------------------------------|
|--------------------------------------------------|
|--------------------------------------------------| cont.
|-121212121212101010101010-8-8-8-8-8-8101010101010-|
|--x-x-x-x-x-x-x-x-x-x-x-x-x-x-x-x-x-x-x-x-x-x-x-x-|
|-101010101010-8-8-8-8-8-8-6-6-6-6-6-6-8-8-8-8-8-8-|
|--------------------------------------------------|

|--------------------------------------------------|
|--------------------------------------------------|
|--------------------------------------------------| cont.
|-121212121212141414141414151515151515171717171717-|
|--x-x-x-x-x-x-x-x-x-x-x-x-x-x-x-x-x-x-x-x-x-x-x-x-|
|-101010101010121212121212131313131313151515151515-|
|--------------------------------------------------|

|--------------------------------------------------|
|--------------------------------------------------|
|--------------------------------------------------| cont.
|-121212121212101010101010-8-8-8-8-8-8151514141212-|
|--x-x-x-x-x-x-x-x-x-x-x-x-x-x-x-x-x-x-x-x-x-x-x-x-|
|-101010101010-8-8-8-8-8-8-6-6-6-6-6-6131312121010-|
|--------------------------------------------------|

1st guitar:
|-----------------|
|-----------------|
|-----------------| x8
|-----------------|
|-----------------|
|-0-0-2-0-5-6-5-0-|
|-0-0-2-0-5-6-5-0-|

Both guitars:
|-----------------|
|-----------------|
|-----------------| x3
|-----------------|
|-----------------|
|-0-0-2-0-5-6-5-0-|
|-0-0-2-0-5-6-5-0-|

|------------------|
|------------------|
|-----------3-3-3b-| cont.
|------------------|
|-0-0-0-0-0--------|
|-0-0-0-0-0--------| x3
|-0-0-0-0-0--------|
  . . . . .

|-----------------|
|-----------------|
|-----------------| x3
|-----------------|
|-----------------|
|-0-0-2-0-5-6-5-0-|
|-0-0-2-0-5-6-5-0-|

|-----------------|
|-----------------|
|-----------------|
|-----------------|
|-----------------|
|-2-0-2-0-3-2-0-2-|
|-2-0-2-0-3-2-0-2-|

|-----------------|
|-----------------|
|-----------------|
|-----------------|
|-----------------|
|-5-0-5-0-6-5-0-5-|
|-5-0-5-0-6-5-0-5-|

1st guitar:
|--------|
|--------|
|--------| 
|--------|
|-0-0000-|
|-0-0000-|
|-0-0000-|
  . .... 

2nd guitar:
|--------|
|--------|
|--------| 
|--------|
|-0-0000-|
|-0-0000-|
|-0-0000-|
  . .... 

Breakdown/Both guitars:
|--------------------------|
|--------------------------|
|--------------------------| x4
|--------------------------|
|-0-0000-0-0000--00-0-0000-|
|-0-0000-0-0000--00-0-0000-|
|-0-0000-0-0000--00-0-0000-|
  . .... . ....  .. . ....

1st guitar:
|--------------------------|
|--------------------------|
|--------------------------| x4
|--------------------------|
|-0-0000-0-0000--00-0-0000-|
|-0-0000-0-0000--00-0-0000-|
|-0-0000-0-0000--00-0-0000-|
  . .... . ....  .. . ....

2nd guitar:
|------------------------------------------------------------------|
|------------------------------------------------------------------|
|------------------------------------------------------------------| 
|-12p0-12p0-12p0-12p0-12p0-12p0-12p0-15p0-15p0-15p0-14p0-14p0-14p0-|
|------------------------------------------------------------------|
|------------------------------------------------------------------|
|------------------------------------------------------------------|

2nd guitar:       x2
|-------------------------------------------------------------------------|
|-------------------------------------------------------------------------|
|-------------------------------------------------------------------------|
|-11p0-11p0-11p0-11p0-11p0-11p0-11p0-11p0-8p0-8p0-8p0-8p0-7p0-7p0-7p0-7p0-|
|-------------------------------------------------------------------------|
|-------------------------------------------------------------------------|
|-------------------------------------------------------------------------|

Both guitars:
|--------|
|--------|
|--------| 
|--------|
|-0-0000-|
|-0-0000-|
|-0-0000-|
  . ....
Comments