Unearth - Endless Chords & Tabs

 

Endless Chords & Tabs

Unearth Chords & Tabs

Version: 1 Type: Bass Tab

Endless Bass Tab

   
Band- Unearth
Song- Endless

- Riff #1 - 

F[--------------------] [----------------------]
C[---------------320--] [-------------0----320-]
G[------5-5355535---0-] [------5-5501---1-3----]
C[-00000--------------] [-00000----------------]


   - Riff #2 - (strum each note a bunch of times)

F[----------------------]
C[----------------------]
G[-5----3-----1-----3---]
C[----------------------]


   - Chorus - 

F[----------------------------]
C[----------------------------]
G[-66-66-66-66----66-66-66-66-]
C[----------------------------]


   - Breakdown #1 - 
[ Tab from: http://www.guitartabs.cc/tabs/u/unearth/endless_btab.html ]
F[---------------------------------------]
C[---------------------------------------]
G[-5-3H5--3H5--3H5--3H5----5-3H5--3P1--3-]
C[---------------------------------------]


   - Breakdown #2 -

F[-0-00--0-00--3-33--3-33--0-00--0-00-------------]
C[------------------------------------1--1-1--1-1-]
G[------------------------------------------------]
C[------------------------------------------------]


   - Breakdown #3 -

    (At first...these are eighth notes)
F[-----------------]
C[-0-0-0-0-0-0-0-0-]
G[-----------------]
C[-----------------]

    (Then break it down)
F[-------------------------------]
C[-00300767003007670030076700000-]
G[-------------------------------]
C[-------------------------------]

  - Chorus - 

    (Same as written above)