Unearth - Black Hearts Now Reign Chords & Tabs

 

Black Hearts Now Reign Chords & Tabs

Unearth Chords & Tabs

Version: 2 Type: Tab 0 ratings
1 star 2 stars 3 stars 4 stars 5 stars
comments

Black Hearts Now Reign Tab

   
Band: Unearth
Song: Black Hearts now REign
Album: The Oncoming Storm

Tabbed by: Tommy [Three]
Email: genji1999@yahoo.com

Unearth uses 7 String guitars, but if you only have a 6 string...tune to:
Tuning: B F# B E G# C#

This is the outro solo played by the lead.

\ = slide down
^ = bend & release
~ = sustain note

Solo part1:
--------------------------|
-------6------------------|
---4-8---8-7-8-7-5-7-5----|  x2
-5---------------------8--|
--------------------------|
--------------------------|
[ Tab from: http://www.guitartabs.cc/tabs/u/unearth/black_hearts_now_reign_tab_ver_2.html ]
Solo part2:
-------------------------|
-------9-8---6-----------|
---5-8-----8---8-7-8-7-5-|  x2
-6-----------------------|
-------------------------|
-------------------------|

Solo part3:
-----------------------------|
--------11-9-8-9-8----8------|
---7-10------------10---10-7-|  x2
-8---------------------------|
-----------------------------|
-----------------------------|

Solo part4:
--------------------------------------|
-8---------8-9-8----------------------|8~~\]
---10-7-10-------10-8-10^-------------|  x1  The last [8~~\] is only played
--------------------------------------|    at the very end of the song, in
--------------------------------------|        other words, the 2nd time around.
--------------------------------------|

and then repeat all 4 parts again.


enjoy.
Comments