Undertones - Teenage Kicks Chords & Tabs

 

Teenage Kicks Chords & Tabs

Undertones Chords & Tabs

Version: 7 Type: Tab 0 ratings
1 star 2 stars 3 stars 4 stars 5 stars
comments

Teenage Kicks Tab

   
A classic hit by an irish band(like me :)

Standard Tuning

Chords are from low to high(EADGBE)
*=not hit
D5:10-12-12-*-*---|
C#5:9-11-11-*-*---|
B5:7-9-9-*-*------|
G5:3-5-5-*-*------|
A5:5-7-7-*-*------|

Main Riff(verses):
(the amount of times hit is written here)
 D5x9 C#5 B5X9 C#5 Then repeat this over

Chorous chords
i wanna hold ya wanna hold ya tight....
G5X12 A5X12

and repeat these chords for the whole song

Solo:
--------------------------------------|
----------------10----10-10-10-10-----|
-------------12-12(14)14-14-14-14-----|
----------12--------------------------|
-------12-----------------------------|
-10-10--------------------------------|
[ Tab from: http://www.guitartabs.cc/tabs/u/undertones/teenage_kicks_tab_ver_7.html ]
----------------------------------|
-----------7-----7--7--7--7-------|
---------9-9(11)-11-11-11-11------|
-------9--------------------------|
-----9----------------------------|
-7-7------------------------------|

--------------------------------------|
----------------10----10-10-10-10-----|
-------------12-12(14)14-14-14-14-----|
----------12--------------------------|
-------12-----------------------------|
-10-10--------------------------------|

----------------------------------|
-----------7-----7--7--7--7-------|
---------9-9(11)-11-11-11-11------|
-------9--------------------------|
-----9----------------------------|
-7-7------------------------------|

play the main(verse) chords over this solo and thats the entire song!
Any comment please send them to Crazy_Cow_Cheese@hotmail.com
Comments