Undertones - Teenage Kicks Chords & Tabs

 

Teenage Kicks Chords & Tabs

Undertones Chords & Tabs

Version: 6 Type: Tab 0 ratings
1 star 2 stars 3 stars 4 stars 5 stars
comments

Teenage Kicks Tab

teenage kicks
the undertones

this is such an easy song to play and sounds good aswell! 
im only 13 so please dont be angry if this is wrong! 
enjoy!

main riff/verses
e-5-----4----------------
b-7-----6-7-----/9-------
g-7-etc-6-9-----/11------  x 4
d-7-----6-9-etc-/11------
a-5-----4-9-----/11------
e---------7-----/9-------

chorus
e--------------------------------
b--------------------------------
g-44444444444--/5-/6666666-------
d-55555555555--/6-/7777777-------
a-55555555555--/6-/7777777-------
e-33333333333--/4-/5555555-------
[ Tab from: http://www.guitartabs.cc/tabs/u/undertones/teenage_kicks_tab_ver_6.html ]
interlude
e-----------------------
b-7---------------------
g-7-ect-9-----/11------- x 2
d-7-----9-ect-/11-------
a-5-----9-----/11-------
e-------7-----/9--------

solo
e----------------------------------------------------------------
b---------10--10--------10----10--------------7--7----7----7-----
g---------10--12b14-r12----12----12-10--------7--9b11---11--r9--- x2
d--------------------------------------------------------------9-
a------12-----------------------------------9--------------------
e-9-10----------------------------------7-8----------------------

ending bit
e----------------------
b----------------------
g-7-7--0-0-------------
d-7-7--0-0--5-5-5-/12--
a-5-5--0-0--5-5-5-/12--
e-----------3-3-3-/10--

order =
verse/main riff x4
chorus x1
verse x2
chorus
interlude x2
verse x2
chorus
solo
ending bit
Comments