Undertones - Teenage Kicks Chords & Tabs

 

Teenage Kicks Chords & Tabs

Undertones Chords & Tabs

Version: 4 Type: Tab 0 ratings
1 star 2 stars 3 stars 4 stars 5 stars
comments

Teenage Kicks Tab

Teenage Kicks
Undertones
True Confessions
Tabbed By Chris and helped with solo by Andrew Biles

Main Riff
e|----------------------------------------------------|
B|----------------------------------------------------|
G|----------------------------------------------------|
D|-1212121212121212-11-10-99999999-10-11--------------|
A|-1212121212121212-11-10-99999999-10-11--------------|
E|-1010101010101010--9--8-77777777--8--9--------------|

Chorus
e|----------------------------------------------------|
B|----------------------------------------------------|
G|----------------------------------------------------|
D|-7-6-55555555-77777777------------------------------|
A|-7-6-55555555-77777777------------------------------|
E|-5-4-33333333-55555555------------------------------|
[ Tab from: http://www.guitartabs.cc/tabs/u/undertones/teenage_kicks_tab_ver_4.html ]
Solo
e|----------------------------------------------------|
B|------------------10---10---10---10---10---10---10--|
G|-------------12-x-12b-(14)-(14)-(14)-(14)-(14)-(14)r|
D|----------12----------------------------------------|
A|-------12-------------------------------------------|
E|-10-10----------------------------------------------|

e|----------------------------------------------------|
B|-------------7---7----7----7----7----7----7---------|
G|---------9-x-9b-(11)-(11)-(11)-(11)-(11)-(11)r------|
D|-------9--------------------------------------------|
A|-----9----------------------------------------------|
E|-7-7------------------------------------------------|

Outro
e|----------------------------------------------------|
B|----------------------------------------------------|
G|----------------------------------------------------|
D|-777-555-9-10-11-12---------------------------------|
A|-777-555-9-10-11-12---------------------------------|
E|-555-333-7--8--9-10---------------------------------|
Comments