Undertones - Here Comes The Summer Chords & Tabs

 

Here Comes The Summer Chords & Tabs

Undertones Chords & Tabs

Version: 1 Type: Tab 0 ratings
1 star 2 stars 3 stars 4 stars 5 stars
comments

Here Comes The Summer Tab

   
---------------------------------------------------------------------
The Undertones - Here Comes The Summer
---------------------------------------------------------------------
Tabbed By Rob Semmeling (smashedout@hotmail.com)
I'm not sure about the solo, but the chords are right

Chords Used (All Powerchords):

    e   e   F#   A    A    B   B   C#   D
e|-------------------------------------------------------------|
B|-------------------------------------------------------------|
G|------9--------2---------4-------6----7----------------------|
D|--2---9---4----2----7----4---9---6----7----------------------|
A|--2---7---4----0----7----2---9---4----5----------------------|
E|--0-------2---------5--------7-------------------------------|

------------
Intro:
------------

A   F#   D   e
A   F#   D   e

------------
Verse 1:
------------

A            F#
Oh baby baby what can I do
    A                                e
You know you drive me crazy when I'm looking at you
    A                             F#
The summer's really here and it's time to come out
D                     e
Time to discover what fun is about

------------
Chorus:
------------
               A       F#     e
Here comes the summer
               A       F#     e
Here comes the summer
               A       F#     D     e
Here comes the summer

------------
Verse 2:
------------
[ Tab from: http://www.guitartabs.cc/tabs/u/undertones/here_comes_the_summer_tab.html ]
     A                                F#
Keep looking for the girls with their faces all tanned
A                        e
Lying on the beaches all covered in sand
A                              F#
Stretching out their long legs lying in the sun
D                                   e
They know they're beautiful they're having fun

------------
Chorus:
------------

Same as previous chorus

------------
Solo:
------------

Guitar 1:

C#   A
C#   A
C#   B   A   B

Guitar 2:
(I didn't write out all the notes)

e|-2-2-2b-2-----------2-2-2b-2------------2-2-2b-2---------------------------------|
B|----------2-2-2b-2-----------2-2-2b-2-------------4-4-4b-4--2-2-2b-2--4-4-4b-4---|
G|---------------------------------------------------------------------------------|
D|---------------------------------------------------------------------------------|
A|---------------------------------------------------------------------------------|
E|---------------------------------------------------------------------------------|

------------
Chorus:
------------

               e        C#     B
Here comes the summer
               e        C#     B
Here comes the summer
               e        C#     B
Here comes the summer
               e        C#     B    B    B    B
Here comes the summer

------------
Verse 3:
------------

Same as Verse 2

------------
Outro:
------------

               A       F#     e
Here comes the summer


(Repeat till fade out)
Comments