Underoath - Writing On The Walls Chords & Tabs

 

Writing On The Walls Chords & Tabs

Underoath Chords & Tabs

Version: 1 Type: Tab

Writing On The Walls Tab

   
-------------------------------------------------------------------------------
			     Writing on the Walls - Underoath
-------------------------------------------------------------------------------
Tabbed by: Vijay Patel
Email:

Tuning: Drop-D

 The whole song is perfect except for the bridge, but it is close. 


  Intro- 00:03
  Guitar 1 (listen to hear how many times to strum chord)
e|----------------------------------------------------------|
B|----------------------------------------------------------|
G|--9--11--12--11--11--14--14-----9--11--12--11--11--14--11-|
D|--x--x---x---x---x---x---x------x--x---x---x---x---x---x--|
A|--7--9---10--9---9---12--12-----7--9---10--9---9---12--9--|\
D|----------------------------------------------------------| \
                                                               | PLAY 
  Guitar 2                                                     |TOGETHER
e|----------------------------------------------------------| /
B|----------------------------------------------------------|/
G|--11--21--12--11--16--21--7-----11--21--12--11--16--14--11|
D|--x---x---x---x---x---x---x-----x---x---x---x---x---x---x-|
A|--9---19--10--9---14--19--5-----9---19--10--9---14--12--9-|
D|----------------------------------------------------------|

  
 
 Verse- 00:24 
  Both Guitars (listen to hear how many times to strum chord)
e|--------------------------------------------------------------------------|
B|--------------------------------------------------------------------------|
G|-9--12--14--11--16--21--16--11--9--12--14--11--16--21--16--11--14--16--11\|
D|-x--x---x---x---x---x---x---x---x--x---x---x---x---x---x---x---x---x---x--|
A|-7--10--12--9---14--19--14--9---7--10--12--9---14--19--14--9---12--14--9\-|
D|--------------------------------------------------------------------------|

  
 
  Chorus- 01:00
  Both Guitars (x2)
e|--------------------------------------|
B|--------------------------------------|
G|-----0-0------0-0------0-0------0-0---|
D|--2--4-4---2--4-4---2--4-4---2--4-4---|
A|--2--------2--------2--------2--------|
D|--2--------2--------2--------2--------|

  01:11
  Guitar 1
e|---5h7p5------------------5------------5h7p5--------------------------|
B|---------7b----5h7---5h8----7-5h7------------7b----5h7----------------|
G|------------7b-----7----------------------------7b------0---0---0-0-0-|
D|--------------------------------------------------------4-5-4-5-4-0-0-|
A|----------------------------------------------------------------------|
D|----------------------------------------------------------------------|

  01:16
  Both Guitars (x2)
e|---------------------------------------|
B|---------------------------------------|
G|-----0-0------0-0------0-0------0-0----|
D|--2--4-4---2--4-4---2--4-4---2--4-4----|
A|--2--------2--------2--------2---------|
D|--2--------2--------2--------2---------|
[ Tab from: http://www.guitartabs.cc/tabs/u/underoath/writing_on_the_walls_tab.html ]
  
 
  Verse- 01:29
  Guitar 1 (listen to hear how many times to strum chord)
e|----------------------------------------------------------|
B|----------------------------------------------------------|
G|--9--11--12--11--11--14--14-----9--11--12--11--11--14--11-|
D|--x--x---x---x---x---x---x------x--x---x---x---x---x---x--|
A|--7--9---10--9---9---12--12-----7--9---10--9---9---12--9--|\
D|----------------------------------------------------------| \
                                                               | PLAY 
  Guitar 2                                                     |TOGETHER
e|----------------------------------------------------------| /
B|----------------------------------------------------------|/
G|--11--21--12--11--16--21--7-----11--21--12--11--16--14--11|
D|--x---x---x---x---x---x---x-----x---x---x---x---x---x---x-|
A|--9---19--10--9---14--19--5-----9---19--10--9---14--12--9-|
D|----------------------------------------------------------|


  Bridge- 01:49  
  Guitar 1 (x5)
e|-------------------------------------------------------|
B|--12------------12---------------------------8/10-7----|
G|----9-11-9-12-----9-11-9-12-9-11-12-11-9-7/9-----------|
D|-------------------------------------------------------|
A|-------------------------------------------------------|\
D|-------------------------------------------------------| \
                                                            |PLAY
  02:11                                                     |TOGETHER
  Guitar 2 (x4)                                             |
e|-------------------------------------------------------| /
B|--12bp--------10bp-------------------------------------|/
G|-------11h12-------12b---------------------------------|
D|-------------------------------------------------------|
A|-------------------------------------------------------|
D|-------------------------------------------------------|

  02:41
  Guitar 1 (listen to hear how many times to strum chord)
e|------------------------------------------------------|
B|------------------------------------------------------|
G|--9--11--7--------------------------------------------|
D|--x--x---x--------------------------------------------|
A|--7--9---5--------------------------------------------|
D|------------------------------------------------------|
  
  Guitar 2
e|-------------------------------------------------|
B|-------------------------------------------------|
G|--21--21--19-------------------------------------|
D|--x---x---x--------------------------------------|
A|--19--19--17-------------------------------------|
D|-------------------------------------------------|

  Outro- 02:52
  Both Guitars (listen for how many times to repeat)
e|--------------------------------------------------|
B|--------------------------------------------------|
G|----0-0-------------------------------------------|
D|--2-4-4-------------------------------------------|
A|--2-----------------------------------------------|
D|--2-----------------------------------------------|





| /  slide up
| \  slide down
| h  hammer-on
| p  pull-off
| ~  vibrato
| +  harmonic
| x  Mute note
===============================================================================