Underoath - When The Sun Sleeps Chords & Tabs

 

When The Sun Sleeps Chords & Tabs

Underoath Chords & Tabs

Version: 1 Type: Tab 4 ratings
1 star 2 stars 3 stars 4 stars 5 stars
comments

When The Sun Sleeps Tab

   
Band: underOATH
Song: When The Sun Sleeps
Album: The Changing Of Times
Track: 1
tuning d A d G B E

Intro/1st guitar:
|-------------------------------------------------------------|
|-------------------------------------------------------------| cont.
|--------0--------------0--------------0--------------0-------|
|----9-----9------7---7---7---7----9-----9------7---7---7---7-|
|-7----7-----7-9----9-------9---7----7-----7-5----5-------5---|
|-------------------------------------------------------------|

|-------------------------------------------------------------|
|--------0--------------0--------------0--------------0-------| x2
|-------------------------------------------------------------|
|----5-----5------5---5---5---5----5-----5------5---5---5---5-|
|-3----3-----3-3----3-------3---3----3-----3-3----3-------3---|
|-------------------------------------------------------------|

2nd guitar: (listen you'll hear it.)
|----------------------||------------------------||-------------------------------|
|----------------------||------------------------||----------------------------15-|
|-12-12-12----11-11-11-||------12----11h12p11-14-||------12----11h12p11-14--------|
|----------------------||-12------12-------------||-12------12--------------------|
|----------------------||------------------------||-------------------------------|
|----------------------||------------------------||-------------------------------|

Verse/1st guitar:
|----------------------------------------------------------------------------|
|----------------------------------------------------------------------------| x2
|-9-9-9991111111111111111119-9-999777777777755555555555555555555555555555555-|
|-x-x-xxx-x-x-x-x-x-x-x-x-xx-x-xxxxxxxxxxxxxxxxxxxxxxxxxxxxxxxxxxxxxxxxxxxxx-|
|-7-7-777-9-9-9-9-9-9-9-9-97-7-777555555555533333333333333333333333333333333-|
|----------------------------------------------------------------------------|

2nd guitar:
|----------------------------------------------------------------------------|
|----------------------------------------------------------------------------| x2
|------12----11h12p11-14-----12--11---------------------12-12-12-11-11-11----|
|-12------12-------------------------12----------12-----------------------12-|
|-------------------------------------------9-10-----------------------------|
|----------------------------------------------------------------------------|

1st guitar:
|-------------------------------------------------------------------|
|-------------------------------------------------------------------| x2
|-99999999999999999999999777777777755555555555555555555555555555555-|
|-99999999999999999999999777777777755555555555555555555555555555555-|
|-77777779999999997777777555555555533333333333333333333333333333333-|
|-------------------------------------------------------------------|
  .................................................................

2nd guitar:
|---------------------------------------------------------------------------|
|---------------------------------------------------------------------------| x2
|-9-9-9991111111111111111119-9-99977777777755555555555555555555555555555555-|
|-x-x-xxx-x-x-x-x-x-x-x-x-xx-x-xxxxxxxxxxxxxxxxxxxxxxxxxxxxxxxxxxxxxxxxxxxx-|
|-7-7-777-9-9-9-9-9-9-9-9-97-7-77755555555533333333333333333333333333333333-|
|---------------------------------------------------------------------------|

Keyboards: (transcribed for guitar.)
|---------------------------------------------|   |--------------------|
|---------------------------------------------| x2|-13-12-10-1210b---8-| x2
|---------------------------------------------|   |--------------------|
|-12-12-12-12-12-12-12-12-10-10-10-10-9-9-9-9-|   |--------------------|
|---------------------------------------------|   |--------------------| (x2)
|---------------------------------------------|   |--------------------|

Chorus/Both guitars:
|------------------------------------------------------------------|
|------------------------------------------------------------------| x2
|-2-222222222222225-55555555555555---------------------------------|
|-2-222222222222225-555555555555552-222222222222220-00000000000000-|
|-0-000000000000003-333333333333332-222222222222220-00000000000000-|
|---------------------------------2-222222222222220-00000000000000-|

Keyboards: ( transcribed for guitar.)
|------------------------------------------------|
|------------------------------------------------| cont.
|-12-12-12-12-12-12-12-1216-16-16-16-16-17-17-17-|
|------------------------------------------------|
|------------------------------------------------|
|------------------------------------------------|

|------------------------------------------------|
|-17-17-17-17-17-17-17-1715-15-15-15-15-15-15-15-| x2
|------------------------------------------------|
|------------------------------------------------|
|------------------------------------------------|
|------------------------------------------------|

Pre Verse/1st guitar:
|----------------------------------------------------------------------|
|----------------------------------------------------------------------| cont.
|----------------------------------------------------------------------|
|----------------------------------------------------7-x-x-7-x-x-7-x-7-|
|-x-x-7-x-x-7-x-x-9-x-x-9-x-x-9-x-9--x-x-7-x-x-7-x-x-------------------|
|----------------------------------------------------------------------|

|------------------------|
|------------------------|
|-----4------------4-----|
|-------5------------5---|
|-3-------3----3-------3-|
|------------------------|

1st guitar:
|-----------------------------------------------------------------|
|-----------------------------------------------------------------| cont.
|-----------------------------------------------------------------|
|-------------------------------------------------7-x-x-7-x-7-x-7-|
|-x-x-7-x-x-7-x-x-9-x-x-9-x-9-x-9-x-x-7-x-x-7-x-x-----------------|
|-----------------------------------------------------------------|

2nd guitar:
|---------------------------------------------------------------|
|---------------------------------------------------------------|
|-9-9---9-9---9-9---9-9---9---9---9-9---9-9---7-7---7-7---7---7-|
|-9-9---9-9---9-9---9-9---9---9---9-9---9-9---7-7---7-7---7---7-|
|-7-7---7-7---9-9---9-9---9---9---7-7---7-7---5-5---5-5---5---5-|
|---------------------------------------------------------------|

1st guitar:
|------------------------|
|------------------------|
|-----4------------4-----|
|-------5------------5---|
|-3-------3----3-------3-|
|------------------------|

Verse/Both guitars:
|----------------------------------------------------------------------------|
|----------------------------------------------------------------------------| x2
|-9-9-9991111111111111111119-9-999777777777755555555555555555555555555555555-|
|-x-x-xxx-x-x-x-x-x-x-x-x-xx-x-xxxxxxxxxxxxxxxxxxxxxxxxxxxxxxxxxxxxxxxxxxxxx-|
|-7-7-777-9-9-9-9-9-9-9-9-97-7-777555555555533333333333333333333333333333333-|
|----------------------------------------------------------------------------|

Keyboards: ( transcribed for guitar.)
|--------------------------------------|      |--------------------|
|--------------------------------------| cont.|-15-13-12-1312---10-| x2
|-12-12-12-1212-12-12-12-12-12-12-11---|      |--------------------|
|-----------------------------------12-|      |--------------------|
|--------------------------------------|      |--------------------| (x2)
|--------------------------------------|      |--------------------|

Chorus/Both guitars:
|------------------------------------------------------------------|
|------------------------------------------------------------------| x2
|-2-222222222222225-55555555555555---------------------------------|
|-2-222222222222225-555555555555552-222222222222220-00000000000000-|
|-0-000000000000003-333333333333332-222222222222220-00000000000000-|
|---------------------------------2-222222222222220-00000000000000-|

Keyboards: ( transcribed for guitar.)
|------------------------------------------------|
|------------------------------------------------| cont.
|-12-12-12-12-12-12-12-1217-17-17-17-17-17-17-17-|
|------------------------------------------------|
|------------------------------------------------|
|------------------------------------------------|

|------------------------------------------------|
|-17-17-17-17-17-17-17-1715-15-15-15-15-15-15-15-| x2
|------------------------------------------------|
|------------------------------------------------|
|------------------------------------------------|
|------------------------------------------------|

Bridge/1st guitar:
|---------------------------------------------------------|
|--------0-----3--------0h3p0--------0-----3--------0h3p0-| cont.
|----0-----0------0---0----------0-----0------0---0-------|
|------0-----0------0--------------0-----0------0---------|
|-0---------------------------3---------------------------|
|---------------------------------------------------------|
[ Tab from: http://www.guitartabs.cc/tabs/u/underoath/when_the_sun_sleeps_tab.html ]
|---------------------------------------------------------|
|--------0-----3--------0h3p0--------0-----3--------0h3p0-| x2
|----0-----0------0---0----------0-----0------0---0-------|
|------0-----0------0--------------0-----0------0---------|
|---------------------------------------------------------|
|-2---------------------------0---------------------------|

|---------------------------------------------------------|
|--------0-----3--------0h3p0--------0-----3--------0h3p0-| cont.
|----0-----0------0---0----------0-----0------0---0-------|
|------0-----0------0--------------0-----0------0---------|
|-0---------------------------3---------------------------|
|---------------------------------------------------------|

|---------------------------------------------------------|
|--------0-----3--------0h3p0--------0-----3--------0h3p0-| 
|----0-----0------0---0----------0-----0------0---0-------|
|------0-----0------0--------------0-----0------0---------|
|---------------------------------------------------------|
|-2---------------------------0---------------------------|

2nd guitar: 
|----------------------------------------------------------------|
|----------------------------------------------------------------| x2
|-22222222222222225555555555555555-------------------------------|
|-22222222222222225555555555555555222222222222222200000000000000-|
|-00000000000000003333333333333333222222222222222200000000000000-|
|---------------------------------222222222222222200000000000000-|
  ..............................................................

1st guitar:
|---------------------------------------------------------|
|--------0-----3--------0h3p0--------0-----3--------0h3p0-| cont.
|----0-----0------0---0----------0-----0------0---0-------|
|------0-----0------0--------------0-----0------0---------|
|-0---------------------------3---------------------------|
|---------------------------------------------------------|

|----------------------------------|
|----------------------------------|
|----------------------------------|
|-22222222222222220000000000000000-|
|-22222222222222220000000000000000-|
|-22222222222222220000000000000000-|
  ................................

Keyboards: (transcribed for guitar.)
|------------------------------------------------|
|------------------------13-13-13-13-13-13-13-13-| cont.
|-12-12-12-12-12-12-12-12------------------------|
|------------------------------------------------|
|------------------------------------------------|
|------------------------------------------------|

|------------------------------------------------|
|-12-12-12-12-12-12-12-1210-10-10-10-10-10-10-10-| cont.
|------------------------------------------------|
|------------------------------------------------|
|------------------------------------------------|
|------------------------------------------------|

|------------------------------------------------|
|------------------------13-13-13-13-13-13-13-13-| cont.
|-12-12-12-12-12-12-12-12------------------------|
|------------------------------------------------|
|------------------------------------------------|
|------------------------------------------------|

|------------------------------------------------|
|-12-12-12-12-12-13-13-1315-15-15-15-15-15-15-15-| cont.
|------------------------------------------------|
|------------------------------------------------|
|------------------------------------------------|
|------------------------------------------------|

Chorus/Both guitars:
|------------------------------------------------------------------|
|------------------------------------------------------------------| x2
|-2-222222222222225-55555555555555---------------------------------|
|-2-222222222222225-555555555555552-222222222222220-00000000000000-|
|-0-000000000000003-333333333333332-222222222222220-00000000000000-|
|---------------------------------2-222222222222220-00000000000000-|

Keyboards: ( transcribed for guitar.)
|------------------------------------------------|
|------------------------------------------------| cont.
|-12-12-12-12-12-12-12-1217-17-17-17-17-17-17-17-|
|------------------------------------------------|
|------------------------------------------------|
|------------------------------------------------|

|------------------------------------------------|
|-17-17-17-17-17-17-17-1715-15-15-15-15-15-15-15-| x2
|------------------------------------------------|
|------------------------------------------------|
|------------------------------------------------|
|------------------------------------------------|

Chorus/Both guitars:
|------------------------------------------------------------------|
|------------------------------------------------------------------| x2
|-2-222222222222225-55555555555555---------------------------------|
|-2-222222222222225-555555555555552-222222222222220-00000000000000-|
|-0-000000000000003-333333333333332-222222222222220-00000000000000-|
|---------------------------------2-222222222222220-00000000000000-|

Keyboards: ( transcribed for guitar.)
|------------------------------------------------|
|------------------------13-13-13-13-13-13-13-13-| cont.
|-12-12-12-12-12-12-12-12------------------------|
|------------------------------------------------|
|------------------------------------------------|
|------------------------------------------------|

|------------------------------------------------|
|-12-12-12-12-12-12-12-1210-10-10-10-10-10-10-10-| x2
|------------------------------------------------|
|------------------------------------------------|
|------------------------------------------------|
|------------------------------------------------|

Breakdown/1st guitar:
|------------------------------------------------------|
|------------------------------------------------------| cont.
|-2-2--2-2-2--2-2-2--2-2-2--2-5-5--5-5-5--5-5-5--5-5-5-|
|-2-2--2-2-2--2-2-2--2-2-2--2-5-5--5-5-5--5-5-5--5-5-5-|
|-0-0--0-0-0--0-0-0--0-0-0--0-3-3--3-3-3--3-3-3--3-3-3-|
|------------------------------------------------------|

|--------------------------------------------------------|
|--------------------------------------------------------| cont.
|-5------------------------------------------------------|
|-5-2-2--2-2-2--2-2-2--2-2-2--2-0-0--0-0-0--0-0-0--0-0-0-|
|-3-2-2--2-2-2--2-2-2--2-2-2--2-0-0--0-0-0--0-0-0--0-0-0-|
|---2-2--2-2-2--2-2-2--2-2-2--2-0-0--0-0-0--0-0-0--0-0-0-|

|--------------------------------------------------------|
|--------------------------------------------------------| cont.
|---2-2--2-2-2--2-2-2--2-2-2--2-5-5--5-5-5--5-5-5--5-5-5-|
|-0-2-2--2-2-2--2-2-2--2-2-2--2-5-5--5-5-5--5-5-5--5-5-5-|
|-0-0-0--0-0-0--0-0-0--0-0-0--0-3-3--3-3-3--3-3-3--3-3-3-|
|-0------------------------------------------------------|

|--------------------------------------------------------|
|--------------------------------------------------------| cont.
|-5------------------------------------------------------|
|-5-2-2--2-2-2--2-2-2--2-2-2--2-0-0--0-0-0--0-0-0--0-0-0-|
|-3-2-2--2-2-2--2-2-2--2-2-2--2-0-0--0-0-0--0-0-0--0-0-0-|
|---2-2--2-2-2--2-2-2--2-2-2--2-0-0--0-0-0--0-0-0--0-0-0-|

2nd guitar:
|------------------------------------------------------|
|------------------------------------------------------| cont.
|-2-2--2-2-2--2-2-2--2-2-2--2-2-2--2-2-2--2-2-2--2-2-2-|
|-2-2--2-2-2--2-2-2--2-2-2--2-2-2--2-2-2--2-2-2--2-2-2-|
|-0-0--0-0-0--0-0-0--0-0-0--0-0-0--0-0-0--0-0-0--0-0-0-|
|------------------------------------------------------|

|--------------------------------------------------------|
|--------------------------------------------------------| x3
|-2-2-2--2-2-2--2-2-2--2-2-2--2-2-2--2-2-2--2-2-2--2-2-2-|
|-2-2-2--2-2-2--2-2-2--2-2-2--2-2-2--2-2-2--2-2-2--2-2-2-|
|-0-0-0--0-0-0--0-0-0--0-0-0--0-0-0--0-0-0--0-0-0--0-0-0-|
|--------------------------------------------------------|

Keyboards: ( transcribed for guitar.)
|----|    |----------------------------|
|----| x23|----------------------------| cont.
|-12-|    |-14-11-11-11-11-11-11-11-11-|
|----|    |----------------------------|
|----|    |----------------------------| 
|----|    |----------------------------|

|-------------------------------------------------|
|-------------------------------------------------| cont.
|-12-12-12-12-12-12-12-14-12-12-12-12-12-12-12-14-|
|-------------------------------------------------|
|-------------------------------------------------|
|-------------------------------------------------|

|-------------------------------------------------|
|-------------------------------------------------|
|-12-12-12-12-12-12-12-14-11-11-11-11-11-11-11-11-|
|-------------------------------------------------|
|-------------------------------------------------|
|-------------------------------------------------|

Outro:
|----------------------------------------------------|
|----0----------0----------0----------0----3-0-----3-|
|-------0----------0----------0----------0------0--0-|
|-------0----------0----------0--------------------0-|
|-0----------3-------------------------------------3-| (let last chord ring out.)
|-----------------------2----------0-----------------|
Comments