Underoath - When The Sun Sleeps Chords & Tabs

 

When The Sun Sleeps Chords & Tabs

Underoath Chords & Tabs

Version: 2 Type: Bass Tab 0 ratings
1 star 2 stars 3 stars 4 stars 5 stars
comments

When The Sun Sleeps Bass Tab

Underoath
When The Sun Sleeps
SolidState Records 2002

This song is pretty simple; it's also in drop "D." This song, although simple, is
amazing, please listen to this song or buy this album, it's amazing. I'm pretty
sure this tab is 95% correct, it shouldn't take that long to learn either, God bless!

Key
h=Hammer On
p=Pull Off
*=Let Ring
/=Slide up
\=Slide down
(If you see this sign "(0)", try to find the right timing)


Intro 2x (You don't even need to play this)
G--------------------------------------|
D--------------------------------------|
A--7---9---7---5---3---3---------------|
D--------------------------------------|

Verse 5x (0)
G--------------------------------------|
D--------------------------------------|
A-777799997777555533333333------------|
D--------------------------------------|

Chorus 2x
G--------------------------------------|
D--------------------------------------|
A--0---3-------------------------------|
D----------2---0-----------------------|

After Chorus
G--------------------------------------|
D--------------------------------------|
A--7---9---7---5---3---3333------------|
D--------------------------------------|
[ Tab from: http://www.guitartabs.cc/tabs/u/underoath/when_the_sun_sleeps_btab_ver_2.html ]
Then Play... (0)
G--------------------------------------|
D--------------------------------------|
A77777h99999h77777p55555-33333--------|
D--------------------------------------|


Verse 2x
G--------------------------------------|
D--------------------------------------|
A-777799997777555533333333------------|
D--------------------------------------|

Chorus 2x
G--------------------------------------|
D--------------------------------------|
A--000000033333333---------------------|
D-----------------2222222200000000-----|

Bridge 2x (You don't even need to play this)
G--------------------------------------|
D--------------------------------------|
A--0---3-------------------------------|
D----------2---0-----------------------|

Chorus 6x
G--------------------------------------|
D--------------------------------------|
A--000000033333333---------------------|
D-----------------2222222200000000-----|

Chorus (2nd variation) 2x   (0)
G--------------------------------------|
D--------------------------------------|
A00-000-000-000-33-333-333-333--------|
D--------------------------------------|

Chorus 2x (0) (play this immediately after the above) 
G--------------------------------------|
D--------------------------------------|
A-------------------------------------|
D---------22-222-222-222-00-000-000-000|

Outro 
G--------------------------------------|
D--------------------------------------|
A--0---3-----------0*------------------|
D----------2---0-----------------------|
Comments