Underoath - Watch Me Die Chords & Tabs

 

Watch Me Die Chords & Tabs

Underoath Chords & Tabs

Version: 1 Type: Tab 0 ratings
1 star 2 stars 3 stars 4 stars 5 stars
comments

Watch Me Die Tab

   
----------------------------------------------------------------------------
			 Watch Me Die (intro) - Underoath
----------------------------------------------------------------------------
Tabbed by: Mike
Email:

Tuning: Drop D
                                                                        2x
e|-------------------------------------------------------------------------|
B|------------------------------------------------------------------------o|
G|-------------------------------------------------------------------------|
D|------2-----3-----5-----7-----8p7-----0-----3-----2----------------------|
A|--------------------------------------------------------0-----0---------o|
D|--0-0---0-0---0-0---0-0---0-0-----0-0---0-0---0-0---0-0---0-0------------|


e|-------------------------------------------------------------------------|
B|-------------------------------------------------------------------------|
G|-------------------------------------------------------------------------|
D|-----7-----3-----6-----7-3---7-3------6-----2-----6-2---6-2---6-2--------|
A|-------------------------------------------------------------------------|
D|-0-0---0-0---0-0---0-0-----0------0-0---0-0---0-0-----0-----0------------|

[ Tab from: http://www.guitartabs.cc/tabs/u/underoath/watch_me_die_tab.html ]
e|-------------------------------------------------------------------------|
B|-------------------------------------------------------------------------|
G|-------------------------------------------------------------------------|
D|-----7-----3-----7-3---7-3---7-3-----6-----2-----6-2---6-2---6-2---------|
A|-------------------------------------------------------------------------|
D|-0-0---0-0---0-0-----0-----0-----0-0---0-0---0-0-----0-----0-------------|

                                                                        4x
e|-------------------------------------------------------------------------|
B|------------------------------------------------------------------------o|
G|-----7-----9-----10-----10-----10p9--------------------------------------|
D|-------------------------------------------------------------------------|
A|------------------------------------------------------------------------o|
D|-0-0---0-0---0-0----0-0----0-0-------------------------------------------|

                                                                        4x
e|-------------------------------------------------------------------------|
B|------------------------------------------------------------------------o|
G|-------------------------------------------------------------------------|
D|-----7-----3-----6-----2-----2-3-2-0-------------------------------------|
A|------------------------------------------------------------------------o|
D|-0-0---0-0---0-0---0-0---0-0---------------------------------------------|

                 4x
e|------------------|
B|-----------------o|
G|------------------|
D|---0---2/3-0------|
A|-----0-----------o|
D|-0----------------|



| /  slide up
| \  slide down
| h  hammer-on
| p  pull-off
| ~  vibrato
| +  harmonic
| x  Mute note
============================================================================
Comments