Underoath - Reinventing Your Exit Chords & Tabs

 

Reinventing Your Exit Chords & Tabs

Underoath Chords & Tabs

Version: 4 Type: Tab 0 ratings
1 star 2 stars 3 stars 4 stars 5 stars
comments

Reinventing Your Exit Tab

   
Underoath
Reinventing Your Exit
Tabbed By: DarkStar11589 (darkstar11589@msn.com)

Intro
e:-------------------------------------|
B:-0---0---0---0-8~---0---0---0---0-8~-|
G:---5---5---5------5---5---5---5------|
D:-------------------------------------|
A:-------------------------------------|
E:-------------------------------------|

Chorus/Intro
e:--------------------------------|
B:--------------------------------|
G:--------5-5-5555----------------|
D:-7-7-7775-5-55553-3-3335-5-5555-|
A:-7-7-7773-3-33333-3-3335-5-5555-|
E:-5-5-555--------1-1-1113-3-3333-|

Verse 1 Guitar 1(&2)
e:---------------------------|
B:---------------------------|
G:----5~-----5~------4~----0-|
D:-77-7~-----3~------5~----0-|
A:-77-7~---------------------|
E:-55-5~---1-------3---------|
pm ..

Verse 1 Guitar 2
e:---------------------------|
B:---------------------------|
G:----5~---5-5-4-5-5-5-4-5-0-|
D:-77-7~-------------------0-|
A:-77-7~---------------------|
E:-55-5~---------------------|on second time in song
pm ..

Verse 2 Guitar 1
e:----------------------------------|
B:----------------------------------|
G:----------------------------------|
D:-77777777333333335555555522222222-|
A:-77777777333333335555555522222222-|
E:-55555555111111113333333300000000-|
pm ................................

Verse 2 Guitar 2
e:---------------------------------|
B:-5---5---3---3---5---5---6---6---|
G:---5---5---5---5---5---5---5---5-|
D:---------------------------------|
A:---------------------------------|
E:---------------------------------|

Pre-chorus Guitar 1&2
e:----------------------------------|
B:----------------------------------|
G:----------------------------------|
D:-3-3-333-3-33-3-7-7-7775-5-533-3~-|
A:-3-3-333-3-33-3-7-7-7775-5-533-3~-|
E:-1-1-111-1-11-1-5-5-5553-3-311-1~-|
[ Tab from: http://www.guitartabs.cc/tabs/u/underoath/reinventing_your_exit_tab_ver_4.html ]
Post-chorus (done after 1st Pre-chorus Guitar 1)
e:-------------------------|
B:-5-555-5h6p5-5-555-5h6p5-|
G:-5-555-5-----5-555-5-----|
D:-3-333-3-----3-333-3-----|
A:-------------------------|
E:-------------------------|

Chorus Guitar 1&2
e:--------------------------------|
B:--------------------------------|
G:--------5-5-5555----------------|
D:-7-7-7775-5-55553-3-3335-5-5555-|
A:-7-7-7773-3-33333-3-3335-5-5555-|
E:-5-5-555--------1-1-1113-3-3333-|

Keyboards (treble pickup)
e:---------------------12-13-10~--|
B:-13~----13~-----13~-------------|
G:--------------------------------|
D:--------------------------------|
A:--------------------------------|
E:--------------------------------|

e:---------------------13-15-12~--|
B:-13~----13~-----13~-------------|
G:--------------------------------|
D:--------------------------------|
A:--------------------------------|
E:--------------------------------|

Bridge Guitar 1&2
e:-------------------------------|
B:-------------------------------|
G:-------------------------------|
D:-7777----7777-7\2-3333----5555-|
A:-7777----7777-7\0-3333----5555-|
E:-5555----5555-5\0-1111----3333-|

Keyboards
e:-------------------------------|
B:-------------------------------|
G:-99999999999999999999999999999-|
D:-------------------------------|
A:-77777777777777777777777777777-|
E:-------------------------------|

Guitar 2
e:------------------------------------|
B:------------------------------------|
G:-5-5-4-5--5-5-4-5--5-5-4-5--5-5-4-5-|
D:------------------------------------|
A:------------------------------------|
E:------------------------------------|

e:---------------------------------|
B:-5---5---3---3---5---5---6---6---|
G:---5---5---5---5---5---5---5---5-|
D:---------------------------------|
A:---------------------------------|
E:---------------------------------|

Keyboards
e:------------------------------------|
B:------------------------------------|
G:-9-10-9-12---------9-10-9-----------|
D:--------------------------12-10-----|
A:------------------------------------|
E:------------------------------------|
Comments