Underoath - Reinventing Your Exit Chords & Tabs

 

Reinventing Your Exit Chords & Tabs

Underoath Chords & Tabs

Version: 3 Type: Tab 0 ratings
1 star 2 stars 3 stars 4 stars 5 stars
comments

Reinventing Your Exit Tab

pre intro (distoriton)

E|----------------------------|
B|----------------------------|
G|-4H5-FEEDBACK---------------|
D|----------------------------|
A|----------------------------|
D|----------------------------|

Intro (distortion)
                |-------|--|continuse to repeat that part untill pre verse
E|------------3--------3---|
B|--0--0--0-----0-0-0------|
G|-5--5--5--5----5-5-5-----|
D|-------------------------|
A|-------------------------|
D|-------------------------|
  12 and hide on a sunday.....


pre verse (distortion)

E|----------------------------|
B|----------------------------|
G|-5-5-5-5-5-5-5-5-5-5-5-5----|
D|-5-5-5-5-5-5-5-5-5-5-5-5----|
A|-0-0-0-3-3-3-3-3-3-5-5-5----|
D|-------------3-3-3-5-5-5----|


verse (light distortion)

E|----------------------------|
B|-----0~---------------------|
G|-----5~---4h5---4p5---------|
D|-----5~---5-------5---------|
A|-0-0-0~---------------------|
D|--------3~-----5~-----------|
   . .


pre pre-chours (distortion)
guitar 1

E|----------------------------|
B|----------------------------|
G|----------------------------|
D|-2-2-2----------------------|
A|-0-0-0-3-3-3-5-5-5-2-2-2----|
D|-------3-3-3-5-5-5-2-2-2----|
   . . . . . . . . . . . .
guitar 2

E|-----------------------------|
B|-5-5-5--3-3-3--5-5-5--6-6-6--|
G|--5-5-5--5-5-5--5-5-5--5-5-5-|
D|-----------------------------|
A|-----------------------------|
D|-----------------------------|


pre chours (distortion)

E|----------------------------|
B|----------------------------|
G|-5-5-5-5-5-5-5-5-5-5-5-5-5--|
D|-5-5-5-5-5-5-5-5-5-5-5-5-5--|
A|-3-3-3-3-0-0-0-0-5-5-5-5-5--|
D|-3-3-3-3---------5-5-5-5-5--|


E|--------------------------------|
B|--------------------------------|
G|-----5-5-5-5-5-5-5-5-5-5-5-5-5--|
D|-----5-5-5-5-5-5-5-5-5-5-5-5-5--|
A|-3-3-3-3-3-3-0-0-0-0-5-5-5-5-5--|
D|-3-3-3-3-3-3---------5-5-5-5-5--|
   . .

[ Tab from: http://www.guitartabs.cc/tabs/u/underoath/reinventing_your_exit_tab_ver_3.html ]
E|----------------------------|
B|-5-5-5-5H6-5-5-5-5H6--------|
G|-5-5-5-5---5-5-5-5----------|
D|----------------------------|
A|----------------------------|
D|----------------------------|


Chours (distortion)

guitar 1
E|----------------------------|
B|----------------------------|
G|-5-5-5-5-5-5-5-5-5-5-5-5----|
D|-5-5-5-5-5-5-5-5-5-5-5-5----|
A|-0-0-0-3-3-3-3-3-3-5-5-5----|
D|-------------3-3-3-5-5-5----|

guitar 2
E|-8-8-8-8-12-13-15-8-8-8-12-13-15--|
B|----------------------------------|
G|----------------------------------| <-I think this  might be keyborad but its ok
D|----------------------------------|
A|----------------------------------|
D|----------------------------------|


after chours back to verse
then pre pre-chours
then pre chours
then chours


breakdown (distortion)
guitar 1
E|----------------------------|
B|----------------------------|
G|-5-5-5-5-5-5-5-5-5-5-5-5----|
D|-5-5-5-5-5-5-0-0-5-5-5-5----|
A|-0-0-3-3-5-5-0-0-3-3-5-5-0~-|
D|-----3-3-5-5-0-0-3-3-5-5----|

guitar 2

E|----------------------------|
B|----------------------------|
G|-9-9-9-9-9-9-9-9-9-9-9-9-9--|
D|-x-x-x-x-x-x-x-x-x-x-x-x-x--|
A|-7-7-7-7-7-7-7-7-7-7-7-7-7--|
D|----------------------------|

interlude (clean)
guitar 2
E|-----------------------------------------|
B|-----------------------------------------|
G|--5-4h5~-5--5-4h5~-5--5-5h4~-5--5-5h4~-5-|
D|---5----5----5----5----5----5----5----5--|
A|-0~--------3~----------------------------|
D|---------------------3~--------5~--------|

guitar 1 (light distortion)
E|-----------------------------|
B|-----------------------------|
G|-----------------------------|
D|-2-2-5-5---------------------| <-this part comes in when the dude starts singing.
A|-0-0-3-3-3-3-5-5-------------|
D|---------3-3-5-5-------------|
   . . . . . . . .

repeat interlude agian except everthing has distortion and no palm mute on guitar 1

after go to chours


end on this note and have it ring out

E|----------------------------|
B|-0~-------------------------|
G|-5~-------------------------|
D|-5~-------------------------|
A|-0~-------------------------|
D|----------------------------|
Comments