Underoath - Reinventing Your Exit Chords & Tabs

 

Reinventing Your Exit Chords & Tabs

Underoath Chords & Tabs

Version: 2 Type: Tab 0 ratings
1 star 2 stars 3 stars 4 stars 5 stars
comments

Reinventing Your Exit Tab

Underoath - Reinventing your exit
By Sam0eL
xD


intro

e|--------8--------------------------|
B|-545454----------------------------|
G|-----------------------------------|
D|-----------777-1010-333-555-777~---|
A|-----------777-1010-333-555-777~---|
D|-----------777-1010-333-555-777~---|
                              **                      


first verse
e|-------------------------------------------------------| 
B|-------------------------------------------------------| 
G|-------7-/-9----4-/-7---------7-/-9---4-/-7--11-9-8-9--| 
D|-------x-/-x----x-/-x---777~--x-/-x---x-/-x------------| 
A|-------3-/-7----2-/-5---777~--3-/-7---2-/-5------------| 
D|------------------------777~---------------------------| 
                          **                       
		

pre-chorus
E|--------------------------------------------------------------------| 
B|--------------------------------------------------------------------| 
G|--------------------------------------------------------------------| 
D|--333---777---555--XX-5-3---333---777---555-------------------------| 
A|--333---777---555--XX-5-3---333---777---555-------------------------|
D|--333---777---555--XX-5-3---333---777---555-------------------------| 
		     **	


chorus
e|-----------------------------------------------------|
B|----------------10-11-8----------------8-10-11-13-10-|
G|-----------------------------------------------------|
D|---777-1010-333---(5)------777-1010-333----(5)------|
A|---777-1010-333---(5)------777-1010-333----(5)------| 
D|---777-1010-333---(5)------777-1010-333----(5)------|

 

second verse
e|----------------------------------------------------
B|----------------------------------------------------|
G|----5-4-5-5---5-4-5-5---5-4-5-5---5-4-5-5--11-9-8-9-|
D|-7~------------------7~-----------------------------|
A|-7~------------------7~-----------------------------|
D|-7~------------------7~-----------------------------|

[ Tab from: http://www.guitartabs.cc/tabs/u/underoath/reinventing_your_exit_tab_ver_2.html ]
pre-chorus
E|--------------------------------------------------------------------| 
B|--------------------------------------------------------------------| 
G|--------------------------------------------------------------------| 
D|--333---777---555--XX-5-3---333---777---555-------------------------| 
A|--333---777---555--XX-5-3---333---777---555-------------------------|
D|--333---777---555--XX-5-3---333---777---555-------------------------| 
		     **	


chorus
e|-----------------------------------------------------|
B|----------------10-11-8----------------8-10-11-13-10-|
G|-----------------------------------------------------|
D|---777-1010-333---(5)------777-1010-333----(5)-------|
A|---777-1010-333---(5)------777-1010-333----(5)-------| 
D|---777-1010-333---(5)------777-1010-333----(5)-------|

   
bridge
E|-------------------------------------------------------------------- 
B|-------------------------------------------------------------------- 
G|------------------------------5~----------------------------------- 
D|--77-777---7/1---333---555----5~-----------------------------------
A|--77-777---7/1---333---555----3~------------------------------------ 
D|--77-777---7/1---333---555------------------------------------------ 


bridge cont.
e|-------------------------------------------------------------------|
B|-------------------------------------------------------------------|
G|----5-4-5-5---5-4-5-5---5-4-5-5---5-4-5-5--5454545454------11-9-8-9|
D|-------------------------------------------------------------------|
A|-------------------------------------------------------------------|
D|-------------------------------------------------------------------|


chorus
e|-----------------------------------------------------|
B|----------------10-11-8----------------8-10-11-13-10-|
G|-----------------------------------------------------|
D|---777-1010-333---(5)------777-1010-333----(5)-------|
A|---777-1010-333---(5)------777-1010-333----(5)-------| 
D|---777-1010-333---(5)------777-1010-333----(5)-------|

 
enjoy it
up agaisnt the wall
up against the wall
xD
Comments