Underoath - I.d.b.w.o.y.f.d. Chords & Tabs

 

I.d.b.w.o.y.f.d. Chords & Tabs

Underoath Chords & Tabs

Version: 1 Type: Tab 0 ratings
1 star 2 stars 3 stars 4 stars 5 stars
comments

I.d.b.w.o.y.f.d. Tab

~-Let Ring
x-Mute

Lead Guitar

Intro:
0:00
e|------------------------|
B|----0-0-0---------------|
G|----5-5-5---------------|
D|----5-5-5---------------|
A|----0-0-0---------------|
D|------------------------|

Verse:     
0:02
e|------------------------------------------------------|
B|-0-0-0---------------------0-0-0----------------------|
G|-5-5-5--9-9-9-9-9-9-9-9-9--5-5-5--9-9-9-9-9-9-9-9-9---|
D|-5-5-5--x-x-x-x-x-x-x-x-x--5-5-5--x-x-x-x-x-x-x-x-x---|
A|-0-0-0--7-7-7-7-7-7-7-7-7--0-0-0--7-7-7-7-7-7-7-7-7---|
D|------------------------------------------------------|
           

e|------------------------------------------------------|
B|------------------------------------------------------|
G|-5-5-5--5-5-5-5-5-5-5-5-5-----------------------------|
D|-5-5-5--x-x-x-x-x-x-x-x-x--0-0-0-0-0-0--5-5-5-5-5-5---|
A|-3-3-3--3-3-3-3-3-3-3-3-3--0-0-0-0-0-0--5-5-5-5-5-5---|
D|-3-3-3---------------------0-0-0-0-0-0--5-5-5-5-5-5---|

0:29
e|-x-x-x-x-x-x-x-x-----------------|
B|-x-x-x-x-x-x-x-x--0~-------------|
G|-x-x-x-x-x-x-x-x--5~-------------|
D|-x-x-x-x-x-x-x-x--5~-------------|
A|-x-x-x-x-x-x-x-x--0~-------------|
D|-x-x-x-x-x-x-x-x-----------------|

This Part is played on the Keyboard but 
if u want to play it here it is
0:44
e|---------------------------------------------------|
B|-0-0-0-0-0-0-0-0-0-0-0-----------------------------|
G|-5-5-5-5-5-5-5-5-5-5-5-----------------------------|
D|-5-5-5-5-5-5-5-5-5-5-5--5-5-5-5-5-5--5-5-5-5-5-5---|
A|-0-0-0-0-0-0-0-0-0-0-0--3-3-3-3-3-3--5-5-5-5-5-5---|(x4)
D|------------------------3-3-3-3-3-3--5-5-5-5-5-5---|

1:12
e|------------------------|
B|-0-0-0-0-0-0-0-0-0-0-0--|
G|-5-5-5-5-5-5-5-5-5-5-5--|(xAlot)
D|-5-5-5-5-5-5-5-5-5-5-5--|
A|-0-0-0-0-0-0-0-0-0-0-0--|
D|------------------------|

Chorus:
1:41
e|---------------------------------------------------|
B|-0-0-0-0-0-0-0-0-0-0-0-----------------------------|
G|-5-5-5-5-5-5-5-5-5-5-5-----------------------------|
D|-5-5-5-5-5-5-5-5-5-5-5--5-5-5-5-5-5--5-5-5-5-5-5---|
A|-0-0-0-0-0-0-0-0-0-0-0--3-3-3-3-3-3--5-5-5-5-5-5---|(x2)
D|------------------------3-3-3-3-3-3--5-5-5-5-5-5---|

1:55
e|---------------------------------------------------|
B|---------------------------------------------------|
G|-14-14-14-14-14-14-14-14-14-14-14-14-14--12-12-12--|
D|-x--x--x--x--x--x--x--x--x--x--x--x--x---x--x--x---|(x3)
A|-12-12-12-12-12-12-12-12-12-12-12-12-12--10-10-10--|
D|---------------------------------------------------|

[ Tab from: http://www.guitartabs.cc/tabs/u/underoath/idbwoyfd_tab.html ]
e|---------------------------------------------------|
B|---------------------------------------------------|
G|-17-17-17-17-17-17-17-17--16-16-16-16-16-16-16-16--|
D|-x--x--x--x--x--x--x--x---x--x--x--x--x--x--x--x---|
A|-15-15-15-15-15-15-15-15--14-14-14-14-14-14-14-14--|
D|---------------------------------------------------|

Bridge:
2:09
e|--------------|
B|--------------|
G|-14-14-12-12--|
D|-x--x--x--x---|(x8)
A|-12-12-10-10--|
D|--------------|


e|-----|
B|-0~--|
G|-5~--|
D|-5~--|
A|-0~--|
D|-----|

2:52
e|------------------------------------------------|
B|-0-0-0--0-0-0-----------------------------------|
G|-5-5-5--5-5-5--5-5-5----------------------------|
D|-5-5-5--5-5-5--5-5-5--0-0-0-0-0-0--5-5-5-5-5-5--|
A|-0-0-0--0-0-0--3-3-3--0-0-0-0-0-0--5-5-5-5-5-5--|
D|---------------3-3-3--0-0-0-0-0-0--5-5-5-5-5-5--|

3:07
e|------------------------------------------------------|
B|-0-0-0---------------------0-0-0----------------------|
G|-5-5-5--9-9-9-9-9-9-9-9-9--5-5-5--9-9-9-9-9-9-9-9-9---|
D|-5-5-5--x-x-x-x-x-x-x-x-x--5-5-5--x-x-x-x-x-x-x-x-x---|
A|-0-0-0--7-7-7-7-7-7-7-7-7--0-0-0--7-7-7-7-7-7-7-7-7---|
D|------------------------------------------------------|
           

e|------------------------------------------------------|
B|------------------------------------------------------|
G|-5-5-5--5-5-5-5-5-5-5-5-5-----------------------------|
D|-5-5-5--x-x-x-x-x-x-x-x-x--0-0-0-0-0-0--5-5-5-5-5-5---|
A|-3-3-3--3-3-3-3-3-3-3-3-3--0-0-0-0-0-0--5-5-5-5-5-5---|
D|-3-3-3---------------------0-0-0-0-0-0--5-5-5-5-5-5---|

Chorus:
3:21
e|---------------------------------------------------|
B|-0-0-0-0-0-0-0-0-0-0-0-----------------------------|
G|-5-5-5-5-5-5-5-5-5-5-5-----------------------------|
D|-5-5-5-5-5-5-5-5-5-5-5--5-5-5-5-5-5--5-5-5-5-5-5---|
A|-0-0-0-0-0-0-0-0-0-0-0--3-3-3-3-3-3--5-5-5-5-5-5---|(x4)
D|------------------------3-3-3-3-3-3--5-5-5-5-5-5---|

3:35
e|---------------------------------------------------|
B|---------------------------------------------------|
G|-14-14-14-14-14-14-14-14-14-14-14-14-14--12-12-12--|
D|-x--x--x--x--x--x--x--x--x--x--x--x--x---x--x--x---|(x3)
A|-12-12-12-12-12-12-12-12-12-12-12-12-12--10-10-10--|
D|---------------------------------------------------|


e|----------------------------------------------|
B|----------------------------------------------|
G|-17-17-17-17-17-17----16-16-16-16-16-16--14~--|
D|-x--x--x--x--x--x-----x--x--x--x--x--x---x----|
A|-15-15-15-15-15-15----14-14-14-14-14-14--12~--|
D|----------------------------------------------|
Comments