Underoath - I Dont Feel Very Respective Today Chords & Tabs

 

I Dont Feel Very Respective Today Chords & Tabs

Underoath Chords & Tabs

Version: 1 Type: Bass Tab 0 ratings
1 star 2 stars 3 stars 4 stars 5 stars
comments

I Dont Feel Very Respective Today Bass Tab

Drop D Tuning


-----------------------------------------------|
-----------------------------------------------|
-----------------------------------------------|
----888888888888888888888888-----00--00--------|   x4

----------------------------------|
----------------------------------|
----------------------------------|
-----00-xx-00~--------------------|   x4

----------------|
----------------|
----------------|
-----8/10\------|

-------------------------------------------------------------------------|
-------------------------------------------------------------------------|
-------------------------------------------------------------------------|
-888888888888--5555555555555--000000000000--101010101010101010101010-----|  x2

-------------------------------------------------------|
-------------------------------------------------------|
-------------------------------------------------------|
-----0000--------------0000---------------x0-0-0-------|
[ Tab from: http://www.guitartabs.cc/tabs/u/underoath/i_dont_feel_very_respective_today_btab.html ]
----------------------------------------|
----------------------------------------|
----------------------------------------|
-----0-0----------------0000------------|

--------------------------------------|
--------------------------------------|
--------------------------------------|
-----8-8-8888~--------0-0-000-10~-----|  x2

--------------------------------------------------|
--------------------------------------------------|
--------------------------------------------------|
-----8-8-8888888888---0-0-000-10-101010101010-----|  x2

---------------------------------------------------------------|
---------------------------------------------------------------|
---------------------------------------------------------------|
-----0--0--0--0--10--10--10--10--7--7--7--7--8--8--5--10-------|  x2

---------------------------------------------|
---------------------------------------------|
---------------------------------------------|
-----xx00x000----------------5-5-5-8-8-8-----|

---------------|
---------------|
---------------|
-----0~--------|
Comments