Underneath The Gun - Reflection Of The Commonwealth Chords & Tabs

 

Reflection Of The Commonwealth Chords & Tabs

Underneath The Gun Chords & Tabs

Version: 1 Type: Tab

Reflection Of The Commonwealth Tab

   
PLEASE RATE AND COMMENT i really want feedback on this

This is my version of
Reflection of the Commonwealth by Underneath the Gun
The other tab seemed way off so I'm going to attempt
to tab this song

this song is not that hard except for when he does those
hammer ons up the scale in the solo
i cant even play the whole song yet, i was just able
to figure the parts out

probably like 75% correct at the least

Drop C

D|
A|
F|
C|
G|
C|

the last note alternate three times
the fourth time is basically a bridge
to the next riff
                                1  2  3
D|------------------------------|--|--|--|
A|------------------------------|--|--|--|
F|------------------------------|--|--|--|
C|----7-------7-------7---8-8-7-|7~|--|7~|
G|--7--7----7---10---7--7-------|--|5~|--|
C|00-0---00--0-0---00----0-0-0--|--|--|--|
  ** *   **  * *   **    * * *
the fourth time it ends with
D|------------|
A|------------|
F|------------|
C|8-7-5-7-5-3-|
G|------------|
C|------------|

you can start this part with opens or 5th fret
on the 5th string
this is played three times
D|------------------------------------|
A|------------------------------------|
F|------------------------------------|
C|0~----0~----------------------------|
G|0~----0~----------------------------|
C|0~000-0~000-5h8-0-8p5-0-3h7-0-7p5p3-|
    ***   ***     *     *     *
the last time is played like
D|----------------------------|
A|----------------------------|
F|----------------------------|
C|7~-----7~-----8----7----5-5-|
G|7~-----7~-------------------|
C|7~-777-7~-777---00--00-0----|
     ***    ***   **  ** *
play this twice
D|---------------|------------|-----------------|
A|---------------|------------|-----------------|
F|---------------|------------|-----------------|
C|---8p0-7p0-5p0-|---7p5---7/8|10p0-8p0-7p0-5p0-|
G|---------------|------------|-----------------|
C|000------------|000---000---|-----------------|
  ***             ***   ***

sweet leads
D|-----------------------------17/18\17-13-131313\-|
A|------------------------13-15--------------------|
F|---17-14-15-14~----14-15-------------------------|
C|/15--------------15------------------------------|
G|---------------17--------------------------------|
C|-------------------------------------------------|

D|---------------------------------------------|
A|---------------------------------------------|
F|----17-14-15-14~14h15p14------14h15p14-------|
C|/15---------------------15--15--------15--15-|
G|--------------------------17------------17---|
C|---------------------------------------------|

D|-----------------------------17/18\17-13-131313\-|
A|------------------------13-15--------------------|
F|---17-14-15-14~----14-15-------------------------|
C|/15--------------15------------------------------|
G|---------------17--------------------------------|
C|-------------------------------------------------|

D|---------------------------------------------|
A|---------------------------------------------|
F|----17-14-15-14~14h15p14------14h15p14-------|
C|/15---------------------15--15--------15--15-|
G|--------------------------17------------17---|
C|---------------------------------------------|

D|-----------------17/18\17/18\17-13-13131313\-|
A|---------18-17-13----------------------------|
F|---17-14-------------------------------------|
C|/15------------------------------------------|
G|---------------------------------------------|
C|---------------------------------------------|

D|---------------------------------------------|
A|---------------------------------------------|
F|----17-14-15-14~14h15p14------14h15p14-------|
C|/15---------------------15--15--------15--15-|
G|--------------------------17------------17---|
C|---------------------------------------------|

play this part twice
D|12h13p12------12h13p12------12h13p12-12h13p12-12h13p12-|
A|--------13--13--------13--13---------------------------|
F|----------14------------14-----------------------------|
C|-------------------------------------------------------|
G|-------------------------------------------------------|
C|-------------------------------------------------------|
[ Tab from: http://www.guitartabs.cc/tabs/u/underneath_the_gun/reflection_of_the_commonwealth_tab.html ]
breakdown played twice
D|-----------------------|
A|-----------------------|
F|-----------------------|
C|-----------------------|
G|00-0-0-00-0-0-00000000-|
C|11-1-1-11-1-1-11111111-|
  ** * * ** * * ********

then you play the intro again but ignore that fourth part that
bridges to the next riff, and instead play the riff two more times
i dont feel like tabbing that part out so just scroll back up

D|---------------------------------------------|
A|---------------------------------------------|
F|--------------------------------121212129999-|
C|--------------------------------xxxxxxxxxxxx-|
G|00-0-000-0-0~-0-0-0-00-0-000-00-101010107777-|
C|00-0-000-0-0~-0-0-0-00-0-000-00--------------|
  ** * *** * *  * * * ** * *** **

D|---------------------------------------------|
A|---------------------------------------------|
F|--------------------------------101010109999-|
C|--------------------------------xxxxxxxxxxxx-|
G|00-0-000-0-0~-0-0-0-00-0-000-00-8-8-8-8-7777-|
C|00-0-000-0-0~-0-0-0-00-0-000-00--------------|
  ** * *** * *  * * * ** * *** **
the breakkdown continues with the pull off riff played
in the background

more leads
D|----------------------------|
A|----------------------------|
F|17-15-14--------------------|
C|---------15~151515----------|
G|-------------------15-13-12-|
C|----------------------------|

D|----------------------------------------------------|
A|------------------------17h18h20-2020-202020-202020-|
F|----------------14h15h17----------------------------|
C|--------14h15h17------------------------------------|
G|12h13h15--------------------------------------------|
C|----------------------------------------------------|

D|20-18-17----------------------------------|
A|------------18~181818---------------------|
F|---------------------17-15-14~17-15-14----|
C|---------------------------------------15-|
G|------------------------------------------|
C|------------------------------------------|

D|-----------------------------------|
A|-----------------------------------|
F|-----------------------------------|
C|--------14h15h17~17p15p14----------|
G|12h13h15-----------------15p13p12~-|
C|-----------------------------------|

D|-----------------------------------------------------------|
A|----------------------------------------17h18h20-20-20-20~-|
F|--------------------------------14h15h17-------------------|
C|--------14h15h17--------14h15h17---------------------------|
G|12h13h15--------12h13h15-----------------------------------|
C|-----------------------------------------------------------|

D|----17h20p17-----------------------------|
A|--18--------18---17h18p17h18p17h18p17----|
F|17------------17~--------------------19--|
C|-----------------------------------------|
G|-----------------------------------------|
C|-----------------------------------------|

D|----------------------------|
A|----------------------------|
F|10-9-7\5-7/9-7\5\3\2-3/5/9~-|
C|----------------------------|
G|----------------------------|
C|----------------------------|

D|----------------------|
A|----------------------|
F|101010101010101099997~|
C|----------------------|
G|----------------------|
C|----------------------|

post solo
D|5~
A|6~
F|7~
C|--
G|--
C|--

pre breakdown
D|----------------------------|
A|----------------------------|
F|----------------------------|
C|----------------------------|
G|0000-0000-00-0000-0000-0000-|
C|1111-1111-11-1111-1111-1111-|
  **** **** ** **** **** ****

D|---------------|
A|---------------|
F|---------------|
C|0--------------|
G|0-0-0000-0~-0~-|
C|0-0-0000-0~-0~-|
  * * **** *  *
D|---------------|
A|---------------|
F|---------------|
C|0--------------|
G|0-0-0000-0-0-0-|
C|0-0-0000-0-0-0-|
  * * **** * * *
D|---------------|
A|---------------|
F|---------------|
C|0--------------|
G|0-0-0000-0~-0~-|
C|0-0-0000-0~-0~-|
  * * **** *  *
D|------------------|
A|-----------10--10-|
F|-----------13--13-|
C|0-----------------|
G|0-0-0000-00--00---|
C|0-0-0000-00--00---|
  * * **** **  **
and yeah you repeat the breakdown one more time and then
D|---------------|
A|---------------|
F|---------------|
C|0--------------|
G|0-0-0000-0--0--|
C|0-1-1111-1~-1~-|
  * * **** *  *
and end with
D|-
A|-
F|-
C|0
G|0
C|1
  *