Under A Nightmare - Wake Up With The Dead Chords & Tabs

 

Wake Up With The Dead Chords & Tabs

Under A Nightmare Chords & Tabs

Version: 1 Type: Tab 0 ratings
1 star 2 stars 3 stars 4 stars 5 stars
comments

Wake Up With The Dead Tab

this is an acustic under a nightmare song that is really awesome.....it goes something 
this.....
[ Tab from: http://www.guitartabs.cc/tabs/u/under_a_nightmare/wake_up_with_the_dead_tab.html ]
intro
E-----------------------------------------------------------|
B-------0-------------3------------1-------------1----------|
G---------0----0-------0-----0-------2-----2-------0----0---|
D----2-------2-----0-------0-----2-------2-----2------2-----|
A--2-------2-----2-------2-----0-------0-----3------3-------|
E-----------------------------------------------------------|

verses/choruses
E--0---3---0---0--------------------|
B--0---3---1---1--------------------|
G--0---0---2---0--------------------|
D--2---0---2---2--------------------|
A--2---2---0---3--------------------|
E--0---3---0---0--------------------|
strum these chords really fast but yet smoothly, also note that this song is acustic so 
u have an electric guitar make sure that its being played clean or it wont sound right.
Comments