Under A Nightmare - Krang Chords & Tabs

 

Krang Chords & Tabs

Under A Nightmare Chords & Tabs

Version: 1 Type: Tab 0 ratings
1 star 2 stars 3 stars 4 stars 5 stars
comments

Krang Tab

intro/chorus
E------------------------------------|
B------------------------------------|during the intro only do this once
G--7--10-6----7--10-13---------------|
D--7--10-6----7--10-13---------------|but when being played as the choruses
A--5--8--4----5--8--11---------------|play through 2 times, meaning each riff
E--5--8--4----5--8--11---------------|shown here shoeld be played two times
                                     each in the same order they r as shown


verse
E-------------------------------------------------|
B-------------------------------------------------|
G-------------------------------------------------|
D-7-7-7-7-7---------------------------------------|
A-5-5-5-5-5--6-6-6-6-6-6--3-3-3-3-3-3-3-3---------|
E------------4-4-4-4-4-4--1-1-1-1-1-1-1-1---------|
[ Tab from: http://www.guitartabs.cc/tabs/u/under_a_nightmare/krang_tab.html ]
Comments