Under A Nightmare - Francis Of Death Chords & Tabs

 

Francis Of Death Chords & Tabs

Under A Nightmare Chords & Tabs

Version: 1 Type: Tab 0 ratings
1 star 2 stars 3 stars 4 stars 5 stars
comments

Francis Of Death Tab

verse
E----------------------------------------------------------------------------|
B----------------------------------------------------------------------------|
G----------------------------------------------------------------------------|
D---------------7-7-7-7-7--5-5-5-5-5------------------------7-7-7-7--5-5-5-5-|
A-2--5-5-5-5-5--5-5-5-5-5--3-3-3-3-3--2-2-2-2--5-5-5-5-5-5--5-5-5-5--3-3-3-3-|
E-0--3-3-3-3-3------------------------0-0-0-0--3-3-3-3-3---------------------|

chorus
E-----------------------------|
B-----------------------------|
G-----------------------------|
D--5--3------5--3-------------|
A--3--1--2---3--1--2----------|
E--------0---------0----------|
[ Tab from: http://www.guitartabs.cc/tabs/u/under_a_nightmare/francis_of_death_tab.html ]
Comments