Undeclinable - Waiting For The Catering Chords & Tabs

 

Waiting For The Catering Chords & Tabs

Undeclinable Chords & Tabs

Version: 1 Type: Tab 0 ratings
1 star 2 stars 3 stars 4 stars 5 stars
comments

Waiting For The Catering Tab

Author/Artist: Undeclinable
Title: Waiting For The Catering
Album: Sound City Burning
Transcribed by: Edo
Email: edoardofelici@hotmail.com

Pretty catchy song...now I know what Undeclinable do before and after their 
shows: bang bang party party!

#intro#
Guitar 1
-|----------------------------------------------------------------------------
-|----------------------------------------------------------------------------
-|-----3-3--------------------------3-3----------9-9----------3-3-------------
-|-----2-2--6/7-7-7-----------------2-2--6/7-7-7-9-9-6/7-7-7--2-2--6/7-7-7----
-|-12\-2-2--6/7-7-7-------------12\-2-2--6/7-7-7-7-7-6/7-7-7--2-2--6/7-7-7----
-|-----0-0--4/5-5-5-----------------0-0--4/5-5-5-----4/5-5-5--0-0--4/5-5-5----
                                                                              
Guitar 2
-|----------------0-0-0-0--0-0-0-0-0-0-0--0-0-0-0-0-0-0--0-0-0-0-0-0-0-0-0-0--
-|----------------5-5-4-5--5-5-5-5-5-4-5--5-5-5-5-5-4-5--5-5-5-5-5-4-5-5-5-5--
-|----------------------------------------------------------------------------
-|----------------------------------------------------------------------------
-|----------------------------------------------------------------------------
-|----------------------------------------------------------------------------
                                                                              
Guitar 1	  #verse#						(repeat)
-----------------|----------------------------------------------------------|-
-----------------|----------------------------------------------------------|-
-----------------|-3-3-----------3-3-----------3-3--------------------------|-
---9-9-9-9-9-5---|-2-2--6/7-7-7--2-2--6/7-7-7--2-2--6/7-7-7--9-9-9-9-9-5----|-
---9-9-9-9-9-5---|-2-2--6/7-7-7--2-2--6/7-7-7--2-2--6/7-7-7--9-9-9-9-9-5----|-
---7-7-7-7-7-3---|-0-0--4/5-5-5--0-0--4/5-5-5--0-0--4/5-5-5--7-7-7-7-7-3----|-
                                                                              
Guitar 2	  "Come along..."					(repeat)
-----------------|-0-0-0-0--0-0-0-0-0-0-0--0-0-0-0-0-0-0-0000---------------|-
-----------------|-5-5-4-5--5-5-5-5-5-4-5--5-5-5-5-5-4-5-5555---------------|-
---4-4-4-4-4-----|--------------------------------------------4-4-4-4-4-----|-
-------------5---|------------------------------------------------------5---|-
-----------------|----------------------------------------------------------|-
-----------------|----------------------------------------------------------|-
[ Tab from: http://www.guitartabs.cc/tabs/u/undeclinable/waiting_for_the_catering_tab.html ]
#chorusA#                                                                              
Guitars 1&2
-|------------------------------------------------------------|---------------
-|------------------------------------------------------------|---------------
-|-3-3----------9-9----------3-3------------------------3-----|---------------
-|-2-2--6/7-7-7-9-9-6/7-7-7--2-2--6/7-7-7--9-9-9-9-9-5\-2-----|---------------
-|-2-2--6/7-7-7-7-7-6/7-7-7--2-2--6/7-7-7--9-9-9-9-9-5\-2-----|---------------
-|-0-0--4/5-5-5-----4/5-5-5--0-0--4/5-5-5--7-7-7-7-7-3\-0-----|---------------
  "Bang bang party party..."
                                                                              
#interlude#
Guitar 1
-|------------------------------------------------------
-|------------------------------------------------------
-|---------------8-8-8-8-8-8-6-6-6-6-6-6----------------
-|---9-9-9-9-9-9-6-6-6-6-6-6-4-4-4-4-4-4-9-9-9-9-9-9----
-|---7-7-7-7-7-7-------------------------7-7-7-7-7-7----
-|------------------------------------------------------
                                                                              
Guitar 2
-|------------------------------------------------------
-|------------------------------------------------------
-|---------------8-8-8-8-8-8-6-6-6-6-6-6----------------
-|---2-2-2-2-2-2-8-8-8-8-8-8-6-6-6-6-6-6-2-2-2-2-2-2----
-|---2-2-2-2-2-2-6-6-6-6-6-6-4-4-4-4-4-4-2-2-2-2-2-2----
-|---0-0-0-0-0-0-------------------------0-0-0-0-0-0----
                                                                              
Guitar 1					(repeat but with this fill-in)
----------------------------------------------------|-----------------------|-
----------------------------------------5-5-5-5-5-5-|------------12-12-12---|-
----6-6-6-6-6-6-6-6-6-6-6-6-9-9-9-9-9-9-4-4-4-4-4-4-|----11-11-11-----------|-
----7-7-7-7-7-7-4-4-4-4-4-4-7-7-7-7-7-7-------------|~9-9----------------9-9~-
----------------------------------------------------|~7-7----------------7-7~-
----------------------------------------------------|-----------------------|-
                                                                              
Guitar 2					(repeat from #interlude#)
----------------------------------------------------|-------------------------
----------------------------------------------------|-------------------------
----------------6-6-6-6-6-6-9-9-9-9-9-9-------------|-------------------------
----7-7-7-7-7-7-6-6-6-6-6-6-9-9-9-9-9-9-9-9-9-9-9-9-|-------------------------
----7-7-7-7-7-7-4-4-4-4-4-4-7-7-7-7-7-7-9-9-9-9-9-9-|-------------------------
----5-5-5-5-5-5-------------------------7-7-7-7-7-7-|-------------------------
                                                                              
play #verse# and then:

#chorusB#
Guitar 1
-|---------------------------------------------------------|------------------
-|---------------------------------------------------------|------------------
-|------4/5-5-5-------4/5-5-5-------4/5-5-5--4-4-4-4-4-----|------------------
-|-7-7--4/5-5-5--7-7--4/5-5-5--7-7--4/5-5-5--4-4-4-4-4-5---|------------------
-|-7-7--2/3-3-3--7-7--2/3-3-3--7-7--2/3-3-3--2-2-2-2-2-5---|------------------
-|-5-5-----------5-5-----------5-5---------------------3---|------------------
 "Bang bang party party..." 
                                                                            
Guitar 2
-|-0-0-0--0-0-0-0-0-0-0--0-0-0-0-0-0-0--0-0-0-0------------|------------------
-|-5-4-5--5-5-5-5-5-4-5--5-5-5-5-5-4-5--5-5-5-5------------|------------------
-|---------------------------------------------4-4-4-4-4---|------------------
-|------------------------------------------------------5--|------------------
-|---------------------------------------------------------|------------------
-|---------------------------------------------------------|------------------

play #chorusA# ("we're on the road...")

then play #Interlude#
                                                                             
then play #verse#

then play #chorusB#

then play #chorusA# ("we're on the road...") 1.5x and end.

Lyrics:

Come along we play tonight. 
We’ll go and have some fun. 
A pool we dive in, we’re drinking and driving. 
The feel of a loaded gun.
Bang bang party party. Bang party party. 
Bang bang party tonight.
The night comes to an end. 
We’re about to go. 
Destination, the venue of tomorrow’s show. 
We are bored and we are horny on this lonely trip. 
We’re all dreaming of a sexual relationship. 
We’re on the road. Would you care to join us?
The evening carefully confiscated the afternoon. 
We are waiting for the catering in our dressingroom. 
I wonder if we are to have a bite. 
The prospect: we feed ourselves with beer tonight.
Comments