Undeclared - Citrus Chords & Tabs

 

Citrus Chords & Tabs

Undeclared Chords & Tabs

Version: 2 Type: Tab 0 ratings
1 star 2 stars 3 stars 4 stars 5 stars
comments

Citrus Tab

Undeclared: Citrus

Drop D Tuning

E-------------------------------------------------------|
B-------------------------------------------------------|
G-------------------------------------------------------|
D---------------------------7-7-7--5-5--3--3-3--5-5--0--|
A--0-0-0-0-3-3-3-3-5-5-5-5--7-7-7--5-5--3--3-3--5-5--0--|
E-0-0-0-0-3-3-3-3-5-5-5-5---7-7-7--5-5--3--3-3--5-5--0--|

E-------------------------------------------------------|
B-------------------------------------------------------|
G-------------------------------------------------------|
D-12--12-12--9-9--15-15-15-15--12\5\19------------------|
A-12--12-12--9-9--15-15-15-15--12\5\19------------------|
E-12--12-12--9-9--15-15-15-15--12\5\19------------------|
[ Tab from: http://www.guitartabs.cc/tabs/u/undeclared/citrus_tab_ver_2.html ]
E-------------------------------------------------------|
B-------------------------------------------------------|
G-------------------------------------------------------|
D-19--19-19--21-21--17-17-17--19-19--3------------------|
A-19--19-19--21-21--17-17-17--19-19--3------------------|
E-19--19-19--21-21--17-17-17--19-19--3------------------|

E-------------------------------------------------------|
B-------------------------------------------------------|
G-------------------------------------------------------|
D-3-3--5-5--7b--3-3--5-5--0-----------------------------|
A-3-3--5-5--7b--3-3--5-5--0-----------------------------|
E-3-3--5-5--7b--3-3--5-5--0-----------------------------|

Repeat Throughout Song

Tab By Dustin and Brandon
Comments