Uncommonmenfrommars - All Or Nothing Chords & Tabs

 

Uncommonmenfrommars Chords & Tabs

Version: 1 Type: Tab 0 ratings
1 star 2 stars 3 stars 4 stars 5 stars
comments

All Or Nothing Tab

-------------------------------------------------------------------------------
			     All or nothing - Uncommonmenfrommars
-------------------------------------------------------------------------------
Tabbed by:Boby.Chenapan	
Email:boby.chenapan@yahoo.fr

Tuning: Normal

intro guitare 1

e|--6--6--6--6--6--6--6--6---------------------------------------------------|
B|--6--3--6--3--4--6--4--6---------------------------------------------------|
G|--3--3--3--3--3--3--3--3---------------------------------------------------|X4
D|---------------------------------------------------------------------------|
A|---------------------------------------------------------------------------|
E|---------------------------------------------------------------------------|
    "  "  "  "  "  "  "  "
intro guitare 2

e|---------------------------------------------------------------------------|
B|---------------------------------------------------------------------------|
G|---------------------------------------------------------------------------|
D|--3-3----3-3----3--4--3--4--3--4--3--4-------------------------------------|
A|--1-1----1-1----1--4--3--2--1--4--3--2-------------------------------------|
E|-------------------2--1--------2--1----------------------------------------|
                  "  "  "     "  "  "     

guitare 1&2:"Here you go on your own again Wondering just what .."

e|---------------------------------------------------------------------------|
B|---------------------------------------------------------------------------|
G|---------------------------------------------------------------------------|
D|--3-3-4-4--3-3--4--3-3--4-4--3--3--4---------------------------------------|
A|--1-1-4-4--3-3--2--1-1--4-4--3--3--2---------------------------------------|
E|------2-2--1-1----------2-2--1--1------------------------------------------|        
      x   x    x       x    x     x
      "   "    "       "    "     "   

guitare 1 : " Cause you won’t last forever here"

e|-66---66---66---66-----6---6-66--55----------------------------------------|
B|---6----6----6----6-77--77-----6---6---------------------------------------|
G|---------------------------------------------------------------------------|x2
D|---------------------------------------------------------------------------|
A|---------------------------------------------------------------------------|
E|---------------------------------------------------------------------------|

guitare 2

e|---------------------------------------------------------------------------|
B|---------------------------------------------------------------------------|
G|---------------------------------------------------------------------------|
D|-3--4--3--4--3--4--3-------------------------------------------------------|
A|-1--4--3--2--1--4--3-------------------------------------------------------|
E|----2--1--------2--1-------------------------------------------------------|
   "  "  "     "  "  "

guitare 1 & 2 :"wonderwhyyyyyyyy oooooooooooh" -_-,
e|---------------------------------------------------------------------------|
B|---------------------------------------------------------------------------|
G|-8--11--10-----------------------------------------------------------------|
D|-8--11--10-----------------------------------------------------------------|
A|-6--9---8------------------------------------------------------------------|
E|---------------------------------------------------------------------------|
   "  "   "

refrain guitare 1&2 : "I spy, in your eye "
e|---------------------------------------------------------------------------|
B|---------------------------------------------------------------------------|
G|-----10--8-----------------------------------------------------------------|
D|--8--10--8-----------------------------------------------------------------|x2
A|--8--8---6-----------------------------------------------------------------|
E|--6------------------------------------------------------------------------|
    "  "   "
guitare 1 : "Hey !"
                       1st time 2nd time
e|--6--6--6--6--6--6--|6--6----|---------|-----------------------------------|
B|--6--3--6--3--4--6--|4--6----|---------|-----------------------------------|
G|--3--3--3--3--3--3--|3--3----|---------|-----------------------------------|x2
D|--------------------|--------|-333-444-|-----------------------------------|
A|--------------------|--------|-333-222-|-----------------------------------|
E|--------------------|--------|-111-----|-----------------------------------|
    "  "  "  "  "  "   "  "
guitare 2
e|---------------------------------------------------------------------------|
B|---------------------------------------------------------------------------|
G|---------------------------------------------------------------------------|
D|--3--4--3--4--3--4--333--444-----------------------------------------------|
A|--1--4--3--2--1--4--333--222-----------------------------------------------|
E|-----2--1--------2--111----------------------------------------------------|
    "  "  "     "  "  

[ Tab from: http://www.guitartabs.cc/tabs/u/uncommonmenfrommars/all_or_nothing_tab.html ]
guitare 1&2 : "Burn to live Live to burn Learn to live Live to learn"
e|---------------------------------------------------------------------------|
B|---------------------------------------------------------------------------|
G|---------------------------------------------------------------------------|
D|--3-3-4-4--3-3--4--3-3--4-4--3--3--4---------------------------------------|
A|--1-1-4-4--3-3--2--1-1--4-4--3--3--2---------------------------------------|
E|------2-2--1-1----------2-2--1--1------------------------------------------|        
      x   x    x       x    x     x
      "   "    "       "    "     "   

guitare 1 : " Cause you won’t last forever here"

e|-66---66---66---66-----6---6-66--55----------------------------------------|
B|---6----6----6----6-77--77-----6---6---------------------------------------|
G|---------------------------------------------------------------------------|x2
D|---------------------------------------------------------------------------|
A|---------------------------------------------------------------------------|
E|---------------------------------------------------------------------------|

guitare 2

e|---------------------------------------------------------------------------|
B|---------------------------------------------------------------------------|
G|---------------------------------------------------------------------------|
D|-3--4--3--4--3-3--4--3-----------------------------------------------------|
A|-1--4--3--2--1-1--4--3-----------------------------------------------------|
E|----2--1----------2--1-----------------------------------------------------|
   x  x  x       x  x  x     
   "  "  "       "  "  "

guitare 1 & 2 :"wonderwhyyyyyyyy oooooooooooh" -_-,
e|---------------------------------------------------------------------------|
B|---------------------------------------------------------------------------|
G|-8--11--10-----------------------------------------------------------------|
D|-8--11--10-----------------------------------------------------------------|
A|-6--9---8------------------------------------------------------------------|
E|---------------------------------------------------------------------------|
   "  "   "

refrain guitare 1&2 : "I spy, in your eye "
e|---------------------------------------------------------------------------|
B|---------------------------------------------------------------------------|
G|-----10--8-----------------------------------------------------------------|
D|--8--10--8-----------------------------------------------------------------|x6
A|--8--8---6-----------------------------------------------------------------|
E|--6------------------------------------------------------------------------|
    "  "   "



guitare 1 : "Once again you’re on your own"
e|---------------------------------------------------------------------------|
B|---------------------------------------------------------------------------|
G|---------------------------------------------------------------------------|
D|--3-3-3--6--6---3-3-3--6--6--3-3-3--6--6--3-3-3--6--6--3-3-3--6--6---------|
A|--1-1-1--4--6---1-1-1--4--6--1-1-1--4--4--1-1-1--4--6--1-1-1--4--6---------|
E|------------4-------------4------------4------------4------------4---------|
      x "  "  "     x "  "  "    x "  "  "    x "  "  "    x "  "  "
      "             "            "            "            "
 guitare 2

e|---------------------------------------------------------------------------|
B|---------------------------------------------------------------------------|
G|---------10-8-7---------------------10-8-7---------------------------------|
D|--3-3-3--x--x-x-8-8----6--6--3-3-3--x--x-x--8-8--6-6---3-3-3--6--6---------|
A|--1-1-1--8--6-5-8-8----4--6--1-1-1--8--6-5--8-8--4-6---1-1-1--4--6---------|
E|----------------6-6-------4-----------------6-6----4-------------4---------|
      x "           x    "  "    x "            x  " "     x "  "  "
      "             "            "              "          "    

guitare 1 & 2 :"Do or die oooooooooooh" -_-,
e|---------------------------------------------------------------------------|
B|---------------------------------------------------------------------------|
G|-8--11--10-----------------------------------------------------------------|
D|-8--11--10-----------------------------------------------------------------|
A|-6--9---8------------------------------------------------------------------|
E|---------------------------------------------------------------------------|
   "  "   "

guitare 1 :"I spy, in your eye,  You’re furious, I wonder why"

                                   not last time  last time
e|-66---66---66---66-----6---6-66-|-55----------|----------------------------|
B|---6----6----6----6-77--77-----6|---6---------|----------------------------|
G|--------------------------------|-------------|----------------------------|x4
D|--------------------------------|-------------|-3-3333--4-3----------------|
A|--------------------------------|-------------|-3-3333--2-1----------------|
E|--------------------------------|-------------|-1-1111---------------------|
                                                   xxxx
guitare 2

e|---------------------------------------------------------------------------|
B|---------------------------------------------------------------------------|
G|---------------------------------------------------------------------------|
D|-3--4--3--3--4--3--3--4--3--4-3--4--3-3333--4-3----------------------------|
A|-1--4--3--1--4--3--1--4--3--2-1--4--3-3333--2-1----------------------------|
E|----2--1-----2--1-----2--1-------2--1-1111---------------------------------|
   "  "  "  "  "  "  "  "  "    "  "    xxxx
Comments