Uncle Tupelo - No Depression Chords & Tabs

 

No Depression Chords & Tabs

Uncle Tupelo Chords & Tabs

Version: 2 Type: Bass Tab 0 ratings
1 star 2 stars 3 stars 4 stars 5 stars
comments

No Depression Bass Tab

B A S S L I N E
===============
 NO DEPRESSION
===============
as performed by Uncle Tupelo
from the album "No Depression"

transcribed by Chip Rogers
		(crogers@d.umn.edu)


**MAIN BASSLINE**
G-------------------------------------------------------------
D--------------3-2---------------0-2--3---3--3-2-0------------
A---3--3--0-3-------3--3--0-3-----------3------------3---3----
E-------3---------------3------------------------------3------

[ Tab from: http://www.guitartabs.cc/tabs/u/uncle_tupelo/no_depression_btab_ver_2.html ]
G-------------------------------------------------------------
D-----------------3-2------------------0----------------------
A-----0-2--3---3-------3---3----2-0---------0-2--3---3----0-2-
E---3--------3-----------3-----------3---3---------3----3-----




**ENDING**
G-------------------------------------------------------------
D---------3--------------------------------3------------------
A----3---------3-------------------3--3-3----3----3-----------
E------------------------3---------------------3--------------



This is another easy bassline.  Listen to the album to hear 
rhythms.  Otherwise, it just repeats itself again and again.




Comments