Uncle Kracker - Follow Me Chords & Tabs

 

Follow Me Chords & Tabs

Uncle Kracker Chords & Tabs

Version: 6 Type: Tab 0 ratings
1 star 2 stars 3 stars 4 stars 5 stars
comments

Follow Me Tab

   
Uncle Kracker "Follow Me"
Tabbed by DJ Skrabble www.mp3.com/djskrabble

e ----------------------------------------------------
B ----------------------------------------------------
G --12h14p12----10-------------------------12--12h14--
D ---------------------12--10------10--12-------------
A ------------------------------12--------------------
E ----------------------------------------------------

e  ---------------------------------------------------
B ----------------------------------------------------
G --12h14p12----10-------------------------10h12--10--
D ---------------------12--10------10--12-------------
A ------------------------------12--------------------
E ----------------------------------------------------
(N.C.)
You don't know how you met me, you don't know why
You can't turn around and say goodbye
F
All you know is when I'm with you
A#
I make you free
C                                   F
And swim through your veins like a fish in the sea

Chorus:
            F          A#
I'm singin Follow me, everything is alright
F                           A#
I'll be the one to tuck you in at night, and if you
F               A#
Want to leave, I can guarantee
C                      F
You won't find nobody, else like me

[ Tab from: http://www.guitartabs.cc/tabs/u/uncle_kracker/follow_me_tab_ver_6.html ]
F                    A#
I'm not worried bout the ring you wear
F                                 C
Cause as long as noone knows then nobody can care
F                          A#
You're feelin' guilty, and I'm well aware
F                                    C
But you don't look ashamed, and baby, I'm not scared

Chorus
Solo: (3x)
e ----------------------------------------------------
B ---13-----------------------------------------------
G 12b--14-12-10----------10--12-----------------------
D --------------12-10-12------------------------------
A ----------------------------------------------------
E ----------------------------------------------------

e ----------------------------------------------------
B ----------------------------------------------------
G 12b-12b-12bp10-------12-----10----------------------
D ---------------12-10--------------------------------
A ----------------------------------------------------
E ----------------------------------------------------

A#
Won't give you money, I can't give you the sky
F
You're better off if you don't ask why
A#
I'm not the reason that you, go astray
C
We'll be alright if you don't ask me to stay

CHORUS
F                               A#
You don't know how you met me, you don't know why
F                         C    F
You can't turn around and say goodbye
F
All you know is when I'm with you
A#
I make you free
C                                   F
And swim through your veins like a fish in the sea

Chorus till you get tired
Comments