Uncle Kracker - Follow Me Chords & Tabs

 

Follow Me Chords & Tabs

Uncle Kracker Chords & Tabs

Version: 5 Type: Tab 0 ratings
1 star 2 stars 3 stars 4 stars 5 stars
comments

Follow Me Tab

first riff:
e--------------------------------------
B---8h10-8-------------------8--8h10--
G------------10-7-10-7-----------------
D----------------------10-7------------
A--------------------------------------
E--------------------------------------

[ Tab from: http://www.guitartabs.cc/tabs/u/uncle_kracker/follow_me_tab_ver_5.html ]
second riff:
e---------------------------------
B---8h10---------------------6h8-6
G------------10-7-10-7------------
D----------------------10-7-------
A---------------------------------
E---------------------------------


i don't know the solo, so if anyone knows it, please send it to me.

Comments