Uncle Kracker - Follow Me Chords & Tabs

 

Follow Me Chords & Tabs

Uncle Kracker Chords & Tabs

Version: 4 Type: Tab 0 ratings
1 star 2 stars 3 stars 4 stars 5 stars
comments

Follow Me Tab

Artist:  Uncle Kracker
Song:  “Follow Me”(intro)
Transcribed:  Doug Frawley

-Ok I’ve seen a few postings of the intro and they are missing some 
key notes.  Here is my version.  It should be pretty accurate.
[ Tab from: http://www.guitartabs.cc/tabs/u/uncle_kracker/follow_me_tab_ver_4.html ]
E--------------------------------------------------------------
B--------------------------------------------------------------
G--12—14h--12---10-------10-----------------12--12--14h--------
D---------------------12------12--10---------------------------
A--------------------------------------12----------------------
E--------------------------------------------------------------

E--------------------------------------------------------------
B--------------------------------------------------------------
G--12—14h---12---10------10---------------12---12\10-----------
D--------------------12------12---10---------------------------
A-------------------------------------12-----------------------
E--------------------------------------------------------------
Comments