Uncle Kracker - Follow Me Chords & Tabs

 

Follow Me Chords & Tabs

Uncle Kracker Chords & Tabs

Version: 3 Type: Tab 0 ratings
1 star 2 stars 3 stars 4 stars 5 stars
comments

Follow Me Tab

Artist : Uncle Kracker
Song Title : Follow Me
Tabbed By : N. Wedemeyer  (joxtrap01@aol.com)

Standard Tuning
[ Tab from: http://www.guitartabs.cc/tabs/u/uncle_kracker/follow_me_tab_ver_3.html ]
e ----------------------------------------------------
B ----------------------------------------------------
G --12h14p12----10-------------------------12--12h14--
D ---------------------12--10------10--12-------------
A ------------------------------12--------------------
E ----------------------------------------------------



e  ---------------------------------------------------
B ----------------------------------------------------
G --12h14p12----10-------------------------10h12--10--
D ---------------------12--10------10--12-------------
A ------------------------------12--------------------
E ----------------------------------------------------
Comments