Uncle Kracker - Follow Me Chords & Tabs

 

Follow Me Chords & Tabs

Uncle Kracker Chords & Tabs

Version: 21 Type: Tab 0 ratings
1 star 2 stars 3 stars 4 stars 5 stars
comments

Follow Me Tab

   
Artist    :: Uncle Kracker
Title     :: Follow Me
Submitter :: SonsOfAngels
=======================================

Verse  : C G F G  C G F C
Chorus : C G F G  C G F C
Bridge : F G C F G  F G
=======================================

Intro :
---5h7--5--3-----3-----------5--5/7----|
--------------5-----5--3---------------|
--------------------------4------------|
---------------------------------------|
---------------------------------------|
---------------------------------------|

---5h7--5--3-----3-----------3h5--3----|
--------------5-----5--3---------------|
--------------------------4------------|
---------------------------------------|
---------------------------------------|
---------------------------------------|

Verse 1 :
You dont know how you met me, you dont know why
you cant turn around and say good bye
         C               G              F        G
all you know is when i'm with you, i'll make you free
    C                 G            F           C
and swim through your veins like a fish in the sea
I'm singin,

Chorus :
C      G           F          G
Follow me if everything is alright
C           G           F     C
i'll be the one to tuck in at night
C                  G            F      G
and if you want to leave, i can guarentee
          C        G  F         C
you won't find nobody else like me.
[ Tab from: http://www.guitartabs.cc/tabs/u/uncle_kracker/follow_me_tab_ver_21.html ]
Verse 2 :
I'm not worried about the ring you wear
cause as long as no one know then nobody care
u're feeling guilty and i'm well aware
but you don't look ashamed and baby i'm not scared.
I'm singin,

Repeat Chorus x1

Solo :
---------8-----------------------------|
---8h10-----10--8--6--------6--6/8-----|
----------------------7--5-------------|
---------------------------------------|
---------------------------------------|
---------------------------------------|

---------8-----------------------------|
---8h10-----10--8--6--------6--6/7-----|
----------------------7--5-------------|
---------------------------------------|
---------------------------------------|
---------------------------------------|

---------8-----------------------------|
---8h10-----10--8--6--------6--6/8-----|
----------------------7--5-------------|
---------------------------------------|
---------------------------------------|
---------------------------------------|

---------------------------------------|
---8--8------8h10--10--8--6--6/8--6--6-|
---------10----------------------------|
---------------------------------------|
---------------------------------------|
---------------------------------------|

Bridge :
F                G          C        F   G
Won't give you money, can't give you the sky
F                      G
were better off if you dont ask why
F             G         C      F   G
i'm not the reason that you go astray
F                       G
we'll be alright if you dont't ask me to stay

Repeat Chorus x1

Repeat Verse 1

Repeat Chorus x3

-End-

Here you are... although this is not the original chord
but it sure will do it...!!
-sonsofangelsvs@yahoo.com-
Comments