Uncle Kracker - Follow Me Chords & Tabs

 

Follow Me Chords & Tabs

Uncle Kracker Chords & Tabs

Version: 20 Type: Tab 0 ratings
1 star 2 stars 3 stars 4 stars 5 stars
comments

Follow Me Tab

   
Song: Follow Me
Artist: Uncle Kracker
Tabber: Angelo Dacanay
Accuracy: 97% Sure!
gelo15_23@yahoo.com


e --5h7-5--3-----3-----------5--5h7-------------------|
B ------------5-----5--3------------------------------|
G ------------------------4---------------------------|
D ----------------------------------------------------|
A ----------------------------------------------------|
E ----------------------------------------------------|

e --5h7-5--3-----3-----------3h5--3-------------------|
B ------------5-----5--3------------------------------|
G ------------------------4---------------------------|
D ----------------------------------------------------|
A ----------------------------------------------------|
E ----------------------------------------------------|


(N.C.)
You don't know how you met me, you don't know why
You can't turn around and say goodbye
	F
All you know is when I'm with you
Bb
I make you free
F                                   Bb   C   F
And swim through your veins like a fish in the sea

Chorus: (N.C.)
            F          Bb		C
I'm singin Follow me, everything is alright
F                           Bb	C
I'll be the one to tuck you in at night, and if you
F               Bb	C
Want to leave, I can guarantee
           F            Bb   C   F
You won't find nobody, else like me

Vers:
F                    Bb
I'm not worried bout the ring you wear
F                           Bb      C		F
Cause as long as noone knows then nobody can care
                          Bb
You're feelin' guilty, and I'm well aware
F                                    Bb	   C    F
But you don't look ashamed, and baby, I'm not scared

Chorus:
[ Tab from: http://www.guitartabs.cc/tabs/u/uncle_kracker/follow_me_tab_ver_20.html ]
 Solo: (3x)
e --------8-------------------------------------------|
B --8h10-----10--8--6--------6--6--6h8----------------|
G ---------------------7--5---------------------------|
D ----------------------------------------------------|
A ----------------------------------------------------|
E ----------------------------------------------------|

e ----------------------------------------------------|
B ---8h10^-8h10^--8p6--6h8--66------------------------|
G ----------------------------------------------------|
D ----------------------------------------------------|
A ----------------------------------------------------|
E ----------------------------------------------------|


Bridge:
G				C
Won't give you money, I can't give you the sky
F                           Bb
You're better off if you don't ask why
G
I'm not the reason that you, go astray
C
We'll be alright if you don't ask me to stay

CHORUS:

Verse:
F                               Bb
You don't know how you met me, you don't know why
F                         Bb   C   F
You can't turn around and say goodbye
F
All you know is when I'm with you
Bb
I make you free
      F                              Bb   C    F
And swim through your veins like a fish in the sea

Chorus:
  I'm Singin'
     F -  Bb         C
     e||---------8------------------------------||
     b||---8s10-----10--8--6~-------------------||
     g||----------------------------------------|| (Repeat)
     D||----------------------------------------||
           thing is alright
           in at night

     F -  Bb         C                F -               Bb        F
     e|--------8----------------------------------------|
     b|--8s10-----10----8s10--8s10--8--6--6----8----6---|
     g|-------------------------------------------------|
     D|-------------------------------------------------|
              guarantee; You won't find   no  bo    dy


     End    (After third part Chorus)

  F - Bb        F
      g|------0--------|
      D|----3----------|
      A|--3------------|
      E|---------1-----|
   ...else like me


i dedicate this 2 mah girl.....Labyah!
Comments