Uncle Kracker - Follow Me Chords & Tabs

 

Follow Me Chords & Tabs

Uncle Kracker Chords & Tabs

Version: 13 Type: Tab 0 ratings
1 star 2 stars 3 stars 4 stars 5 stars
comments

Follow Me Tab

Uncle Kracker - Follow Me.
 Tabbed by Matt - tinbandit@yahoo.com.
  
6-----------------------------------------------------
5--8h10--8\\6-----6------------8---8h10----------------
4-------------7-----7--5------------------------------
3-------------------------7---------------------------
2-----------------------------------------------------
1-----------------------------------------------------
 

6-----------------------------------------------------
5--8h10--8p6-----6------------6\\8---6----------------
4-------------7-----7--5------------------------------
3-------------------------7---------------------------
2-----------------------------------------------------
1-----------------------------------------------------
 
 
:: Ultimate Guitar Archive :: 
http://www.ultimate-guitar.com 




[ Tab from: http://www.guitartabs.cc/tabs/u/uncle_kracker/follow_me_tab_ver_13.html ]
Comments