Uncle Kracker - Follow Me Chords & Tabs

 

Follow Me Chords & Tabs

Uncle Kracker Chords & Tabs

Version: 1 Type: Tab 3 ratings
1 star 2 stars 3 stars 4 stars 5 stars
comments

Follow Me Tab

UNCLE KRACKER - FOLLOW ME


Intro

e -3h5--3--1-----1-----------1h3--3/5--
B ------------3-----3--1---------------
G ------------------------2------------
D -------------------------------------
A -------------------------------------
E -------------------------------------
[ Tab from: http://www.guitartabs.cc/tabs/u/uncle_kracker/follow_me_tab.html ]
e -3h5--3--1-----1-----------1h3--1----
B ------------3-----3--1---------------
G ------------------------2------------
D -------------------------------------
A -------------------------------------
E -------------------------------------



Interlude:

e -5--8--5/3--1--------1--1--1/3-- (repeat 3x)
B ---------------3--1-------------
G --------------------------------
D --------------------------------
A --------------------------------
E --------------------------------

e -5--5--3/1-----1--1h3--1--
B ------------3-------------
G --------------------------
D --------------------------
A --------------------------
E --------------------------


Comments