Uncle Kracker - Follow Me Chords & Tabs

 

Follow Me Chords & Tabs

Uncle Kracker Chords & Tabs

Version: 1 Type: Chords 0 ratings
1 star 2 stars 3 stars 4 stars 5 stars
comments

Follow Me Chords

   
Follow Me
Uncle Kracker

Intro Western Guitar:
e -----------------------------------------------
B –-8-h-10-8-----------------------8--/10--------
G -----------10--7--10--7------------------------
D -------------------------10--7-----------------
A -----------------------------------------------
E -----------------------------------------------

e -----------------------------------------------
B –-8-h-10-8-----------------------/8------------
G -----------10--7--10--7-------------10---------
D -------------------------10--7-----------------
A -----------------------------------------------
E -----------------------------------------------

(N.C.)
You don't know how you met me, you don't know why
You can't turn around and say goodbye
	F
All you know is when I'm with you
Bb
I make you free
F                                   Bb   C   F
And swim through your veins like a fish in the sea

Chorus: (N.C.)
            F          Bb		C
I'm singin Follow me, everything is alright
F                           Bb	C
I'll be the one to tuck you in at night, and if you
F               Bb	C
Want to leave, I can guarantee
           F            Bb   C   F
You won't find nobody, else like me
[ Tab from: http://www.guitartabs.cc/tabs/u/uncle_kracker/follow_me_crd.html ]
Vers:
F                    Bb
I'm not worried bout the ring you wear
F                           Bb      C		F
Cause as long as noone knows then nobody can care
                          Bb
You're feelin' guilty, and I'm well aware
F                                    Bb	   C    F
But you don't look ashamed, and baby, I'm not scared



Chorus:

 Solo: (3x)
e ----------------------------------------------------
B ---13-----------------------------------------------
G 12b--14-12-10----------10--12-----------------------		3x
D --------------12-10-12------------------------------
A ----------------------------------------------------
E ----------------------------------------------------

e ----------------------------------------------------
B ----------------------------------------------------
G 12b-12b-12bp10-------12-----10----------------------
D ---------------12-10--------------------------------
A ----------------------------------------------------
E ----------------------------------------------------


Bridge:
Gm				C
Won't give you money, I can't give you the sky
F
You're better off if you don't ask why
Gm			     G
I'm not the reason that you, go astray
C
We'll be alright if you don't ask me to stay

CHORUS:

Vers:
F                               Bb
You don't know how you met me, you don't know why
F                         Bb   C   F
You can't turn around and say goodbye
F
All you know is when I'm with you
Bb
I make you free
      F                              Bb   C    F
And swim through your veins like a fish in the sea

Chorus:

Comments