Uncle Kracker - Follow Me Chords & Tabs

 

Follow Me Chords & Tabs

Uncle Kracker Chords & Tabs

Version: 3 Type: Bass Tab 0 ratings
1 star 2 stars 3 stars 4 stars 5 stars
comments

Follow Me Bass Tab

Band: Uncle Kracker
Song: Follow Me
Tabbed By: Jason Bauer (jbauer33@hotmail.com)

I don't this is exactly right, but its damn close. 
If someone can find any problems with this, please correct it.

No bass during the intro, first verse or first chorus. Bass comes in
during verse 2 (45 seconds)

Main Riff:

G|------------------------------------------------------------------
D|------------------------------------------------------------------
A|------------------------------------------------------------------
E|--1-----1-1----5-6---8--8--10--12---------------------------------
[ Tab from: http://www.guitartabs.cc/tabs/u/uncle_kracker/follow_me_btab_ver_3.html ]
G|------------------------------------------------------------------
D|------------------------------------------------------------------
A|------------------------------------------------------------------
E|--1-----1-1----5-6---8--8--10--12---------------------------------

G|------------------------------------------------------------------
D|------------------------------------------------------------------
A|------------------------------------------------------------------
E|--1------6--8----1-1----------------------------------------------

Bridge:

G|------------------------------------------------------------------
D|------------------------------------------------------------------
A|------------------------------------------------------------------
E|--6---6-6--68--8--8---1--1--1--1--1--1-1--------------------------

G|------------------------------------------------------------------
D|------------------------------------------------------------------
A|------------------------------------------------------------------
E|--6---6-6--68--8--8---12-12-12-12-12-12-12------------------------
Comments