Uncle Andy - Your Cheatin Heart Chords & Tabs

 

Your Cheatin Heart Chords & Tabs

Uncle Andy Chords & Tabs

Version: 1 Type: Tab 1 rating
1 star 2 stars 3 stars 4 stars 5 stars
comments

Your Cheatin Heart Tab

   
#----------------------------------PLEASE NOTE---------------------------------#
#This file is the author's own work and represents their interpretation of the #
#song. You may only use this file for private study, scholarship, or research. #
#------------------------------------------------------------------------------#



By Markbo (markmark552@hotmail.com)

"Uncle Andy" who was 88 years old at the time (1990). Claimed he played fiddle for 
Hank Williams sr. Andy had a lot of good songs, I learned as many as I could before 
He passed away. Thank you and Rest in peace Uncle Andy.

Your cheatin Heart (Uncle Andy's version)

po=pull off
v= vibrato

Strum to the words

                  G                G                C    C
                  
e-----------------3----------3-----3----------------0----0--------
B-----------------0----------0-----0----------------1----1--------
G-----0-----------0----------2-----0----------------0----0--------
D---0--2(po)0-----0-----3----3-----0-------0-2-0----2----2--------
A-----------------2----------x-----2--------------3-3----3--3-----
E--------------3--3----------x-----3----------------x--3-x--------

   Your cheatin heart.....................will tell on you



          
            D                          G

e-----------2--------------------------3------3-------------------
B-----------3--------------------------0------0-------------------
G--0-2-0----2-----2(po)0---------------0------2-------------------
D--------0--0--------------2(po)0------0---3--3-------------------
A-----------x--------------------------2------x-------------------
E-----------x-----------------------3--3------x-------------------
[ Tab from: http://www.guitartabs.cc/tabs/u/uncle_andy/your_cheatin_heart_tab.html ]
 you'll cry and cry..the whole night through

(The same for the other verses)


The chorus............


                  C         C            G
                  
e-----------------0-----0---0------------3---------------------------
B-----------------1-----1---1------------0---------------------------
G-----0--0--0-----0-----0---0-----0-0-0--0--------------------------
D-----------------2-----2---2------------0---------------------------
A--------------3--3-----x---3------------2---------------------------
E-----------------x--3--3---x------------3---------------------------

    When tears fall down.........like fallin rain


                 A+
       
e----------------5----------------------------------------------------
B----------------5----------------------------------------------------
G---0--0--0------2-----------0----------------------------------------
D----------------2-----2--4-----2--4(v)---------------------------------
A------------0---0----------------------------------------------------
E----------------x----------------------------------------------------

you'll cry and cry....and call my name



Last time play

       C     Db    D    D                              G
       
e------0-----0----0-----0------------------------------3----------
B------1-----2----3-----3------------------------------0----------
G------0-----4----5-----5------------------------------0----------
D------2-----3----4-----4--------------2(po)0----------0----------
A------3-----4----5-----5---------------------2(po)0---2----------
E------x-----x----x---5-x------------------------------3----------

    Your cheatin heart.........


Comments