Uncle Andy - Uncle Andys Blues Chords & Tabs

 

Uncle Andys Blues Chords & Tabs

Uncle Andy Chords & Tabs

Version: 1 Type: Tab 1 rating
1 star 2 stars 3 stars 4 stars 5 stars
comments

Uncle Andys Blues Tab

   
#----------------------------------PLEASE NOTE---------------------------------#
#This file is the author's own work and represents their interpretation of the #
#song. You may only use this file for private study, scholarship, or research. #
#------------------------------------------------------------------------------#

Ni**er blues (Sorry about the name, thats what the old guy who showed me the song 
called it, you can call it whatever you want.)

"Uncle Andy" who was 88 years old at the time (1990). Claimed he played fiddle for 
Hank Williams sr. Andy had a lot of good songs, I learned as many as I could before 
He passed away. Thank you and Rest in peace Uncle Andy.

By Markbo (markmark552@hotmail.com)


Try a Bluegrass feel.


                             G                        D 
       
e----------------------------3------------------------2-----------
B----------------------------0------------------------3-----------
G---------0---(s)4-0---------0------------0-----------2-----------
D-----0-2--------------------0--------0-2---2-0---0---0-----------
A----------------------------2------------------2-----x-----------
E------------------------3---3------------------------x-----------



                         D (4 or so times)               G
[ Tab from: http://www.guitartabs.cc/tabs/u/uncle_andy/uncle_andys_blues_tab.html ]
e------------------------2-------------------------------3--------
B------------------------3-------------------------------0--------
G--------0---------------2-------------------------------0--------
D---0--2---2(po)0---0----0-----------------0-------------0--------
A-----------------2------x-------------0-2---2-0---------2--------
E------------------------x------------------------2-3----3--------


Repeat then play.......


                   C     C                                   

e------------------0-----0-----------------------------------
B------------------1-----1---------------2(po)0--------------
G------------------0-----0-------2(po)0----------2(po)0------
D------------------2-----2-----------------------------------
A---------0-2--3---3-----3---3-------------------------------
E-----3-3----------x---3-x-----------------------------------


     G      G+                                   D

e----3------3------------------------------------2----------------
B----0------0------------------------------------3----------------
G----0------0------------------------------------2----------------
D----0------2-------------2(po)0-----------0-----0---4--2--0------
A----2------0------2(po)0--------2(po)0----------x----------------
E----3------3------------------------------------x----------------


                    G

e-------------------3---------------------------------------------
B-------------------0---------------------------------------------
G-------------------0---------------------------------------------
D-------0-----------0--------------------------------------------
A---0-2---2-0-------2---------------------------------------------
E-------------2-3---3---------------------------------------------



Wanna be rich? Always listen to older folks.
Comments