Unbelievevable Truth - Solved Chords & Tabs

 

Solved Chords & Tabs

Unbelievevable Truth Chords & Tabs

Version: 1 Type: Tab 0 ratings
1 star 2 stars 3 stars 4 stars 5 stars
comments

Solved Tab

   
#----------------------------------PLEASE NOTE--------------------------------#
#This file is the author's own work and represents their interpretation of the#
#song. You may only use this file for private study, scholarship, or research.#
#-----------------------------------------------------------------------------#

Date: Tue, 01 Jan 1980 00:23:12 +0100
From: Stephane 
Subject: u/unbelievevable_truth/solved.tab

SOLVED
---------------------
Unbelievable Truth / Almost here (Yorke/Moulster/Powell)

Transcribed by Stephane Francois (alain.francois@hol.fr)

First riff :
[ Tab from: http://www.guitartabs.cc/tabs/u/unbelievevable_truth/solved_tab.html ]
-----------------------------------------------
-7-----7---------------------------------------
----------9-----9-------7-----7---6-----6--4---
----9--------9-----9-------5---------5-----5---
-----------------------------------------------
-----------------------------------------------
                                                                There's
a problem I can't solve...
Second Riff :

--10----------------------------
------10------------------------
----------12--11--9--11---------
-------------------------12-----
--------------------------------
--------------------------------


Bass Break :

------------------------------------------------------
------------------------------------------------------
------------------------------------------------------
-2-2-2-2-2-2-2-2-3-3-3-3-3-3-3-3-3-0-0-0-0-0-0-0-0-0--


The end :

    D     A         G
You can't solved it along ...

(and so on)


I don't have the lyrics...

I just have discovered U.T. ,  but they're great guys for sure...
Just listen to them...

You can write to me if you have the lyrics...
 ----------------------
|        Steph         |
| alain.francois@hol.fr|
 ----------------------
Comments